ISO-10303-21;
HEADER;
FILE_DESCRIPTION (( 'STEP AP203' ),
    '1' );
FILE_NAME ('0e35.STEP',
    '2022-07-07T17:16:03',
    ( '' ),
    ( '' ),
    'SwSTEP 2.0',
    'SolidWorks 2019',
    '' );
FILE_SCHEMA (( 'CONFIG_CONTROL_DESIGN' ));
ENDSEC;

DATA;
#1 = MECHANICAL_CONTEXT ( 'NONE', #113, 'mechanical' ) ;
#2 = EDGE_LOOP ( 'NONE', ( #64, #180 ) ) ;
#3 = LINE ( 'NONE', #149, #160 ) ;
#4 = CARTESIAN_POINT ( 'NONE',  ( 6.750000000000000000, 8.266365894244634333E-16, 7.000000000000000000 ) ) ;
#5 = EDGE_LOOP ( 'NONE', ( #86, #198 ) ) ;
#6 = ORIENTED_EDGE ( 'NONE', *, *, #46, .T. ) ;
#7 = CARTESIAN_POINT ( 'NONE',  ( 0.000000000000000000, 0.000000000000000000, 107.0000000000000142 ) ) ;
#8 = DIRECTION ( 'NONE',  ( 1.000000000000000000, 0.000000000000000000, 0.000000000000000000 ) ) ;
#9 = PRODUCT ( '0e35', '0e35', '', ( #1 ) ) ;
#10 = DIRECTION ( 'NONE',  ( 1.000000000000000000, 0.000000000000000000, 0.000000000000000000 ) ) ;
#11 = EDGE_CURVE ( 'NONE', #191, #221, #139, .T. ) ;
#12 = FACE_OUTER_BOUND ( 'NONE', #123, .T. ) ;
#13 = CC_DESIGN_DATE_AND_TIME_ASSIGNMENT ( #250, #84, ( #68 ) ) ;
#14 = DIRECTION ( 'NONE',  ( -1.000000000000000000, 0.000000000000000000, 0.000000000000000000 ) ) ;
#15 = AXIS2_PLACEMENT_3D ( 'NONE', #89, #187, #30 ) ;
#16 = DIRECTION ( 'NONE',  ( -1.000000000000000000, 0.000000000000000000, 0.000000000000000000 ) ) ;
#17 = DIRECTION ( 'NONE',  ( -0.000000000000000000, -0.000000000000000000, -1.000000000000000000 ) ) ;
#18 = FACE_OUTER_BOUND ( 'NONE', #211, .T. ) ;
#19 = PERSON_AND_ORGANIZATION_ROLE ( 'classification_officer' ) ;
#20 = CC_DESIGN_PERSON_AND_ORGANIZATION_ASSIGNMENT ( #81, #159, ( #109 ) ) ;
#21 = APPROVAL_DATE_TIME ( #42, #25 ) ;
#22 = APPROVAL ( #203, 'NEURÈENÝ' ) ;
#23 = PERSON_AND_ORGANIZATION ( #227, #129 ) ;
#24 = LOCAL_TIME ( 19, 16, 3.000000000000000000, #199 ) ;
#25 = APPROVAL ( #158, 'NEURÈENÝ' ) ;
#26 = CIRCLE ( 'NONE', #15, 6.750000000000000000 ) ;
#27 = SECURITY_CLASSIFICATION ( '', '', #236 ) ;
#28 =( NAMED_UNIT ( * ) SI_UNIT ( $, .STERADIAN. ) SOLID_ANGLE_UNIT ( ) );
#29 = AXIS2_PLACEMENT_3D ( 'NONE', #154, #151, #57 ) ;
#30 = DIRECTION ( 'NONE',  ( 1.000000000000000000, 0.000000000000000000, 0.000000000000000000 ) ) ;
#31 = LOCAL_TIME ( 19, 16, 3.000000000000000000, #60 ) ;
#32 = CARTESIAN_POINT ( 'NONE',  ( -11.00000000000000000, 0.000000000000000000, 7.000000000000000000 ) ) ;
#33 = CIRCLE ( 'NONE', #48, 11.00000000000000000 ) ;
#34 = VERTEX_POINT ( 'NONE', #228 ) ;
#35 = ORIENTED_EDGE ( 'NONE', *, *, #204, .T. ) ;
#36 = CARTESIAN_POINT ( 'NONE',  ( 0.000000000000000000, 0.000000000000000000, 0.000000000000000000 ) ) ;
#37 = DIRECTION ( 'NONE',  ( 1.000000000000000000, 0.000000000000000000, -0.000000000000000000 ) ) ;
#38 = DIRECTION ( 'NONE',  ( 1.000000000000000000, 0.000000000000000000, -0.000000000000000000 ) ) ;
#39 = DIRECTION ( 'NONE',  ( 1.000000000000000000, 0.000000000000000000, 0.000000000000000000 ) ) ;
#40 = ADVANCED_FACE ( 'NONE', ( #77 ), #55, .F. ) ;
#41 = AXIS2_PLACEMENT_3D ( 'NONE', #36, #169, #37 ) ;
#42 = DATE_AND_TIME ( #200, #205 ) ;
#43 = CC_DESIGN_PERSON_AND_ORGANIZATION_ASSIGNMENT ( #124, #177, ( #68 ) ) ;
#44 = DATE_AND_TIME ( #145, #31 ) ;
#45 = ADVANCED_BREP_SHAPE_REPRESENTATION ( '0e35', ( #118, #244 ), #178 ) ;
#46 = EDGE_CURVE ( 'NONE', #76, #47, #181, .T. ) ;
#47 = VERTEX_POINT ( 'NONE', #100 ) ;
#48 = AXIS2_PLACEMENT_3D ( 'NONE', #131, #224, #111 ) ;
#49 = FACE_BOUND ( 'NONE', #2, .T. ) ;
#50 = DIRECTION ( 'NONE',  ( 0.000000000000000000, 0.000000000000000000, 1.000000000000000000 ) ) ;
#51 = DIRECTION ( 'NONE',  ( 0.000000000000000000, 0.000000000000000000, 1.000000000000000000 ) ) ;
#52 = ORIENTED_EDGE ( 'NONE', *, *, #204, .F. ) ;
#53 = CARTESIAN_POINT ( 'NONE',  ( 11.00000000000000000, 1.347111479062088405E-15, 7.000000000000000000 ) ) ;
#54 = LOCAL_TIME ( 19, 16, 3.000000000000000000, #201 ) ;
#55 = PLANE ( 'NONE',  #41 ) ;
#56 = ADVANCED_FACE ( 'NONE', ( #18 ), #174, .T. ) ;
#57 = DIRECTION ( 'NONE',  ( -1.000000000000000000, 0.000000000000000000, 0.000000000000000000 ) ) ;
#58 = CARTESIAN_POINT ( 'NONE',  ( 0.000000000000000000, 0.000000000000000000, 7.000000000000000000 ) ) ;
#59 = CIRCLE ( 'NONE', #202, 6.750000000000000000 ) ;
#60 = COORDINATED_UNIVERSAL_TIME_OFFSET ( 1, 0, .AHEAD. ) ;
#61 = CALENDAR_DATE ( 2022, 7, 7 ) ;
#62 = APPROVAL_STATUS ( 'not_yet_approved' ) ;
#63 = APPROVAL_PERSON_ORGANIZATION ( #23, #22, #216 ) ;
#64 = ORIENTED_EDGE ( 'NONE', *, *, #210, .F. ) ;
#65 = CARTESIAN_POINT ( 'NONE',  ( 0.000000000000000000, 0.000000000000000000, 107.0000000000000142 ) ) ;
#66 = ORIENTED_EDGE ( 'NONE', *, *, #156, .T. ) ;
#67 = DIRECTION ( 'NONE',  ( 1.000000000000000000, 0.000000000000000000, 0.000000000000000000 ) ) ;
#68 = PRODUCT_DEFINITION ( 'NEZNÁMÝ', '', #109, #133 ) ;
#69 = DIRECTION ( 'NONE',  ( -0.000000000000000000, -0.000000000000000000, -1.000000000000000000 ) ) ;
#70 = CARTESIAN_POINT ( 'NONE',  ( 6.750000000000000000, 8.266365894244634333E-16, 107.0000000000000142 ) ) ;
#71 = ORIENTED_EDGE ( 'NONE', *, *, #46, .F. ) ;
#72 = PRODUCT_DEFINITION_SHAPE ( 'NONE', 'NONE',  #68 ) ;
#73 = CARTESIAN_POINT ( 'NONE',  ( -11.00000000000000000, 0.000000000000000000, 0.000000000000000000 ) ) ;
#74 = DIRECTION ( 'NONE',  ( 1.000000000000000000, 0.000000000000000000, 0.000000000000000000 ) ) ;
#75 = EDGE_CURVE ( 'NONE', #47, #76, #238, .T. ) ;
#76 = VERTEX_POINT ( 'NONE', #73 ) ;
#77 = FACE_OUTER_BOUND ( 'NONE', #155, .T. ) ;
#78 = ORIENTED_EDGE ( 'NONE', *, *, #75, .T. ) ;
#79 = VECTOR ( 'NONE', #97, 1000.000000000000000 ) ;
#80 = APPLICATION_PROTOCOL_DEFINITION ( 'international standard', 'config_control_design', 1994, #113 ) ;
#81 = PERSON_AND_ORGANIZATION ( #227, #129 ) ;
#82 = APPROVAL ( #62, 'NEURÈENÝ' ) ;
#83 = DATE_TIME_ROLE ( 'classification_date' ) ;
#84 = DATE_TIME_ROLE ( 'creation_date' ) ;
#85 = APPROVAL_PERSON_ORGANIZATION ( #220, #25, #142 ) ;
#86 = ORIENTED_EDGE ( 'NONE', *, *, #226, .T. ) ;
#87 = DIRECTION ( 'NONE',  ( 1.000000000000000000, 0.000000000000000000, 0.000000000000000000 ) ) ;
#88 = ORIENTED_EDGE ( 'NONE', *, *, #176, .T. ) ;
#89 = CARTESIAN_POINT ( 'NONE',  ( 0.000000000000000000, 0.000000000000000000, 7.000000000000000000 ) ) ;
#90 = EDGE_CURVE ( 'NONE', #121, #47, #157, .T. ) ;
#91 = CARTESIAN_POINT ( 'NONE',  ( -11.00000000000000000, 0.000000000000000000, 7.000000000000000000 ) ) ;
#92 = DIRECTION ( 'NONE',  ( -1.000000000000000000, 0.000000000000000000, 0.000000000000000000 ) ) ;
#93 = ADVANCED_FACE ( 'NONE', ( #12 ), #232, .T. ) ;
#94 = EDGE_LOOP ( 'NONE', ( #136, #245, #115, #6 ) ) ;
#95 = CARTESIAN_POINT ( 'NONE',  ( -6.750000000000000000, 0.000000000000000000, 107.0000000000000142 ) ) ;
#96 = CYLINDRICAL_SURFACE ( 'NONE', #29, 6.750000000000000000 ) ;
#97 = DIRECTION ( 'NONE',  ( -0.000000000000000000, -0.000000000000000000, -1.000000000000000000 ) ) ;
#98 = PRODUCT_RELATED_PRODUCT_CATEGORY ( 'detail', '', ( #9 ) ) ;
#99 = LOCAL_TIME ( 19, 16, 3.000000000000000000, #219 ) ;
#100 = CARTESIAN_POINT ( 'NONE',  ( 11.00000000000000000, 1.347111479062088405E-15, 0.000000000000000000 ) ) ;
#101 = ADVANCED_FACE ( 'NONE', ( #215 ), #96, .T. ) ;
#102 = DIRECTION ( 'NONE',  ( 0.000000000000000000, 0.000000000000000000, 1.000000000000000000 ) ) ;
#103 = PERSON_AND_ORGANIZATION ( #227, #129 ) ;
#104 = CALENDAR_DATE ( 2022, 7, 7 ) ;
#105 = CC_DESIGN_APPROVAL ( #25, ( #109 ) ) ;
#106 = CALENDAR_DATE ( 2022, 7, 7 ) ;
#107 = APPROVAL_DATE_TIME ( #122, #22 ) ;
#108 = CIRCLE ( 'NONE', #138, 11.00000000000000000 ) ;
#109 = PRODUCT_DEFINITION_FORMATION_WITH_SPECIFIED_SOURCE ( 'LIBOVOLNÝ', '', #9, .NOT_KNOWN. ) ;
#110 = CARTESIAN_POINT ( 'NONE',  ( 0.000000000000000000, 0.000000000000000000, 0.000000000000000000 ) ) ;
#111 = DIRECTION ( 'NONE',  ( 1.000000000000000000, 0.000000000000000000, 0.000000000000000000 ) ) ;
#112 = AXIS2_PLACEMENT_3D ( 'NONE', #117, #196, #38 ) ;
#113 = APPLICATION_CONTEXT ( 'configuration controlled 3d designs of mechanical parts and assemblies' ) ;
#114 = DIRECTION ( 'NONE',  ( 0.000000000000000000, 0.000000000000000000, 1.000000000000000000 ) ) ;
#115 = ORIENTED_EDGE ( 'NONE', *, *, #150, .T. ) ;
#116 = CC_DESIGN_PERSON_AND_ORGANIZATION_ASSIGNMENT ( #103, #125, ( #9 ) ) ;
#117 = CARTESIAN_POINT ( 'NONE',  ( 0.000000000000000000, 0.000000000000000000, 107.0000000000000142 ) ) ;
#118 = MANIFOLD_SOLID_BREP ( 'Pøidat vysunutím3', #163 ) ;
#119 = CARTESIAN_POINT ( 'NONE',  ( 6.750000000000000000, 8.266365894244634333E-16, 107.0000000000000142 ) ) ;
#120 = ORIENTED_EDGE ( 'NONE', *, *, #150, .F. ) ;
#121 = VERTEX_POINT ( 'NONE', #53 ) ;
#122 = DATE_AND_TIME ( #104, #24 ) ;
#123 = EDGE_LOOP ( 'NONE', ( #213, #251, #78, #120 ) ) ;
#124 = PERSON_AND_ORGANIZATION ( #227, #129 ) ;
#125 = PERSON_AND_ORGANIZATION_ROLE ( 'design_owner' ) ;
#126 = VERTEX_POINT ( 'NONE', #95 ) ;
#127 = CIRCLE ( 'NONE', #141, 6.750000000000000000 ) ;
#128 = APPROVAL_DATE_TIME ( #44, #82 ) ;
#129 = ORGANIZATION ( 'NEURÈENÝ', 'NEURÈENÝ', '' ) ;
#130 = PLANE ( 'NONE',  #153 ) ;
#131 = CARTESIAN_POINT ( 'NONE',  ( 0.000000000000000000, 0.000000000000000000, 7.000000000000000000 ) ) ;
#132 = DIRECTION ( 'NONE',  ( 1.000000000000000000, 0.000000000000000000, -0.000000000000000000 ) ) ;
#133 = DESIGN_CONTEXT ( 'detailed design', #184, 'design' ) ;
#134 = ADVANCED_FACE ( 'NONE', ( #229 ), #135, .T. ) ;
#135 = CYLINDRICAL_SURFACE ( 'NONE', #214, 11.00000000000000000 ) ;
#136 = ORIENTED_EDGE ( 'NONE', *, *, #90, .F. ) ;
#137 = LINE ( 'NONE', #32, #208 ) ;
#138 = AXIS2_PLACEMENT_3D ( 'NONE', #164, #114, #67 ) ;
#139 = LINE ( 'NONE', #119, #192 ) ;
#140 = PERSON_AND_ORGANIZATION_ROLE ( 'creator' ) ;
#141 = AXIS2_PLACEMENT_3D ( 'NONE', #240, #166, #8 ) ;
#142 = APPROVAL_ROLE ( '' ) ;
#143 = PERSON_AND_ORGANIZATION ( #227, #129 ) ;
#144 = AXIS2_PLACEMENT_3D ( 'NONE', #172, #102, #246 ) ;
#145 = CALENDAR_DATE ( 2022, 7, 7 ) ;
#146 = DIRECTION ( 'NONE',  ( 0.000000000000000000, 0.000000000000000000, 1.000000000000000000 ) ) ;
#147 = EDGE_LOOP ( 'NONE', ( #52, #193, #66, #222 ) ) ;
#148 = ORIENTED_EDGE ( 'NONE', *, *, #75, .F. ) ;
#149 = CARTESIAN_POINT ( 'NONE',  ( -6.750000000000000000, 0.000000000000000000, 107.0000000000000142 ) ) ;
#150 = EDGE_CURVE ( 'NONE', #206, #76, #137, .T. ) ;
#151 = DIRECTION ( 'NONE',  ( -0.000000000000000000, -0.000000000000000000, -1.000000000000000000 ) ) ;
#152 = DIRECTION ( 'NONE',  ( -0.000000000000000000, -0.000000000000000000, -1.000000000000000000 ) ) ;
#153 = AXIS2_PLACEMENT_3D ( 'NONE', #167, #146, #132 ) ;
#154 = CARTESIAN_POINT ( 'NONE',  ( 0.000000000000000000, 0.000000000000000000, 107.0000000000000142 ) ) ;
#155 = EDGE_LOOP ( 'NONE', ( #71, #148 ) ) ;
#156 = EDGE_CURVE ( 'NONE', #221, #34, #26, .T. ) ;
#157 = LINE ( 'NONE', #194, #79 ) ;
#158 = APPROVAL_STATUS ( 'not_yet_approved' ) ;
#159 = PERSON_AND_ORGANIZATION_ROLE ( 'design_supplier' ) ;
#160 = VECTOR ( 'NONE', #185, 1000.000000000000000 ) ;
#161 =( LENGTH_UNIT ( ) NAMED_UNIT ( * ) SI_UNIT ( .MILLI., .METRE. ) );
#162 = EDGE_CURVE ( 'NONE', #121, #206, #108, .T. ) ;
#163 = CLOSED_SHELL ( 'NONE', ( #239, #93, #134, #243, #40, #101, #56 ) ) ;
#164 = CARTESIAN_POINT ( 'NONE',  ( 0.000000000000000000, 0.000000000000000000, 7.000000000000000000 ) ) ;
#165 = UNCERTAINTY_MEASURE_WITH_UNIT (LENGTH_MEASURE( 1.000000000000000082E-05 ), #161, 'distance_accuracy_value', 'NONE');
#166 = DIRECTION ( 'NONE',  ( 0.000000000000000000, 0.000000000000000000, 1.000000000000000000 ) ) ;
#167 = CARTESIAN_POINT ( 'NONE',  ( 0.000000000000000000, 0.000000000000000000, 7.000000000000000000 ) ) ;
#168 = CC_DESIGN_SECURITY_CLASSIFICATION ( #27, ( #109 ) ) ;
#169 = DIRECTION ( 'NONE',  ( 0.000000000000000000, 0.000000000000000000, 1.000000000000000000 ) ) ;
#170 = CARTESIAN_POINT ( 'NONE',  ( 0.000000000000000000, 0.000000000000000000, 7.000000000000000000 ) ) ;
#171 = AXIS2_PLACEMENT_3D ( 'NONE', #58, #248, #14 ) ;
#172 = CARTESIAN_POINT ( 'NONE',  ( 0.000000000000000000, 0.000000000000000000, 0.000000000000000000 ) ) ;
#173 = ORIENTED_EDGE ( 'NONE', *, *, #176, .F. ) ;
#174 = PLANE ( 'NONE',  #112 ) ;
#175 = APPLICATION_PROTOCOL_DEFINITION ( 'international standard', 'config_control_design', 1994, #184 ) ;
#176 = EDGE_CURVE ( 'NONE', #126, #191, #59, .T. ) ;
#177 = PERSON_AND_ORGANIZATION_ROLE ( 'creator' ) ;
#178 =( GEOMETRIC_REPRESENTATION_CONTEXT ( 3 ) GLOBAL_UNCERTAINTY_ASSIGNED_CONTEXT ( ( #165 ) ) GLOBAL_UNIT_ASSIGNED_CONTEXT ( ( #161, #207, #28 ) ) REPRESENTATION_CONTEXT ( 'NONE', 'WORKASPACE' ) );
#179 = COORDINATED_UNIVERSAL_TIME_OFFSET ( 1, 0, .AHEAD. ) ;
#180 = ORIENTED_EDGE ( 'NONE', *, *, #156, .F. ) ;
#181 = CIRCLE ( 'NONE', #186, 11.00000000000000000 ) ;
#182 = EDGE_CURVE ( 'NONE', #126, #34, #3, .T. ) ;
#183 = CIRCLE ( 'NONE', #235, 6.750000000000000000 ) ;
#184 = APPLICATION_CONTEXT ( 'configuration controlled 3d designs of mechanical parts and assemblies' ) ;
#185 = DIRECTION ( 'NONE',  ( -0.000000000000000000, -0.000000000000000000, -1.000000000000000000 ) ) ;
#186 = AXIS2_PLACEMENT_3D ( 'NONE', #231, #247, #74 ) ;
#187 = DIRECTION ( 'NONE',  ( 0.000000000000000000, 0.000000000000000000, 1.000000000000000000 ) ) ;
#188 = DIRECTION ( 'NONE',  ( -0.000000000000000000, -0.000000000000000000, -1.000000000000000000 ) ) ;
#189 = CC_DESIGN_DATE_AND_TIME_ASSIGNMENT ( #255, #83, ( #27 ) ) ;
#190 = CARTESIAN_POINT ( 'NONE',  ( 0.000000000000000000, 0.000000000000000000, 107.0000000000000142 ) ) ;
#191 = VERTEX_POINT ( 'NONE', #70 ) ;
#192 = VECTOR ( 'NONE', #17, 1000.000000000000000 ) ;
#193 = ORIENTED_EDGE ( 'NONE', *, *, #11, .T. ) ;
#194 = CARTESIAN_POINT ( 'NONE',  ( 11.00000000000000000, 1.347111479062088405E-15, 7.000000000000000000 ) ) ;
#195 = ORIENTED_EDGE ( 'NONE', *, *, #182, .T. ) ;
#196 = DIRECTION ( 'NONE',  ( 0.000000000000000000, 0.000000000000000000, 1.000000000000000000 ) ) ;
#197 = EDGE_LOOP ( 'NONE', ( #234, #173, #195, #249 ) ) ;
#198 = ORIENTED_EDGE ( 'NONE', *, *, #162, .T. ) ;
#199 = COORDINATED_UNIVERSAL_TIME_OFFSET ( 1, 0, .AHEAD. ) ;
#200 = CALENDAR_DATE ( 2022, 7, 7 ) ;
#201 = COORDINATED_UNIVERSAL_TIME_OFFSET ( 1, 0, .AHEAD. ) ;
#202 = AXIS2_PLACEMENT_3D ( 'NONE', #65, #51, #10 ) ;
#203 = APPROVAL_STATUS ( 'not_yet_approved' ) ;
#204 = EDGE_CURVE ( 'NONE', #191, #126, #183, .T. ) ;
#205 = LOCAL_TIME ( 19, 16, 3.000000000000000000, #179 ) ;
#206 = VERTEX_POINT ( 'NONE', #91 ) ;
#207 =( NAMED_UNIT ( * ) PLANE_ANGLE_UNIT ( ) SI_UNIT ( $, .RADIAN. ) );
#208 = VECTOR ( 'NONE', #188, 1000.000000000000000 ) ;
#209 = CYLINDRICAL_SURFACE ( 'NONE', #217, 6.750000000000000000 ) ;
#210 = EDGE_CURVE ( 'NONE', #34, #221, #127, .T. ) ;
#211 = EDGE_LOOP ( 'NONE', ( #88, #35 ) ) ;
#212 = SHAPE_DEFINITION_REPRESENTATION ( #72, #45 ) ;
#213 = ORIENTED_EDGE ( 'NONE', *, *, #162, .F. ) ;
#214 = AXIS2_PLACEMENT_3D ( 'NONE', #170, #152, #16 ) ;
#215 = FACE_OUTER_BOUND ( 'NONE', #197, .T. ) ;
#216 = APPROVAL_ROLE ( '' ) ;
#217 = AXIS2_PLACEMENT_3D ( 'NONE', #190, #69, #92 ) ;
#218 = DIRECTION ( 'NONE',  ( 0.000000000000000000, 0.000000000000000000, 1.000000000000000000 ) ) ;
#219 = COORDINATED_UNIVERSAL_TIME_OFFSET ( 1, 0, .AHEAD. ) ;
#220 = PERSON_AND_ORGANIZATION ( #227, #129 ) ;
#221 = VERTEX_POINT ( 'NONE', #4 ) ;
#222 = ORIENTED_EDGE ( 'NONE', *, *, #182, .F. ) ;
#223 = APPROVAL_PERSON_ORGANIZATION ( #237, #82, #233 ) ;
#224 = DIRECTION ( 'NONE',  ( 0.000000000000000000, 0.000000000000000000, 1.000000000000000000 ) ) ;
#225 = FACE_OUTER_BOUND ( 'NONE', #5, .T. ) ;
#226 = EDGE_CURVE ( 'NONE', #206, #121, #33, .T. ) ;
#227 = PERSON ( 'NEURÈENÝ', 'NEURÈENÝ', 'NEURÈENÝ', ('NEURÈENÝ'), ('NEURÈENÝ'), ('NEURÈENÝ') ) ;
#228 = CARTESIAN_POINT ( 'NONE',  ( -6.750000000000000000, 0.000000000000000000, 7.000000000000000000 ) ) ;
#229 = FACE_OUTER_BOUND ( 'NONE', #94, .T. ) ;
#230 = CC_DESIGN_PERSON_AND_ORGANIZATION_ASSIGNMENT ( #253, #140, ( #109 ) ) ;
#231 = CARTESIAN_POINT ( 'NONE',  ( 0.000000000000000000, 0.000000000000000000, 0.000000000000000000 ) ) ;
#232 = CYLINDRICAL_SURFACE ( 'NONE', #171, 11.00000000000000000 ) ;
#233 = APPROVAL_ROLE ( '' ) ;
#234 = ORIENTED_EDGE ( 'NONE', *, *, #11, .F. ) ;
#235 = AXIS2_PLACEMENT_3D ( 'NONE', #7, #50, #87 ) ;
#236 = SECURITY_CLASSIFICATION_LEVEL ( 'unclassified' ) ;
#237 = PERSON_AND_ORGANIZATION ( #227, #129 ) ;
#238 = CIRCLE ( 'NONE', #144, 11.00000000000000000 ) ;
#239 = ADVANCED_FACE ( 'NONE', ( #242 ), #209, .T. ) ;
#240 = CARTESIAN_POINT ( 'NONE',  ( 0.000000000000000000, 0.000000000000000000, 7.000000000000000000 ) ) ;
#241 = CC_DESIGN_APPROVAL ( #82, ( #27 ) ) ;
#242 = FACE_OUTER_BOUND ( 'NONE', #147, .T. ) ;
#243 = ADVANCED_FACE ( 'NONE', ( #49, #225 ), #130, .T. ) ;
#244 = AXIS2_PLACEMENT_3D ( 'NONE', #110, #218, #39 ) ;
#245 = ORIENTED_EDGE ( 'NONE', *, *, #226, .F. ) ;
#246 = DIRECTION ( 'NONE',  ( 1.000000000000000000, 0.000000000000000000, 0.000000000000000000 ) ) ;
#247 = DIRECTION ( 'NONE',  ( 0.000000000000000000, 0.000000000000000000, 1.000000000000000000 ) ) ;
#248 = DIRECTION ( 'NONE',  ( -0.000000000000000000, -0.000000000000000000, -1.000000000000000000 ) ) ;
#249 = ORIENTED_EDGE ( 'NONE', *, *, #210, .T. ) ;
#250 = DATE_AND_TIME ( #61, #99 ) ;
#251 = ORIENTED_EDGE ( 'NONE', *, *, #90, .T. ) ;
#252 = CC_DESIGN_PERSON_AND_ORGANIZATION_ASSIGNMENT ( #143, #19, ( #27 ) ) ;
#253 = PERSON_AND_ORGANIZATION ( #227, #129 ) ;
#254 = CC_DESIGN_APPROVAL ( #22, ( #68 ) ) ;
#255 = DATE_AND_TIME ( #106, #54 ) ;
ENDSEC;
END-ISO-10303-21;
