ISO-10303-21;
HEADER;
FILE_DESCRIPTION (( 'STEP AP203' ),
    '1' );
FILE_NAME ('522f.STEP',
    '2022-07-07T17:08:27',
    ( '' ),
    ( '' ),
    'SwSTEP 2.0',
    'SolidWorks 2019',
    '' );
FILE_SCHEMA (( 'CONFIG_CONTROL_DESIGN' ));
ENDSEC;

DATA;
#1 = COORDINATED_UNIVERSAL_TIME_OFFSET ( 1, 0, .AHEAD. ) ;
#2 = ORIENTED_EDGE ( 'NONE', *, *, #158, .F. ) ;
#3 = CIRCLE ( 'NONE', #247, 7.750000000000000000 ) ;
#4 = DIRECTION ( 'NONE',  ( 1.000000000000000000, 0.000000000000000000, 0.000000000000000000 ) ) ;
#5 = ORIENTED_EDGE ( 'NONE', *, *, #68, .F. ) ;
#6 = DIRECTION ( 'NONE',  ( 1.000000000000000000, 0.000000000000000000, 0.000000000000000000 ) ) ;
#7 = CARTESIAN_POINT ( 'NONE',  ( 0.000000000000000000, 0.000000000000000000, 7.000000000000000000 ) ) ;
#8 = AXIS2_PLACEMENT_3D ( 'NONE', #84, #245, #145 ) ;
#9 = DIRECTION ( 'NONE',  ( 0.000000000000000000, 0.000000000000000000, 1.000000000000000000 ) ) ;
#10 = PRODUCT_DEFINITION ( 'NEZNÁMÝ', '', #207, #177 ) ;
#11 = EDGE_CURVE ( 'NONE', #32, #35, #112, .T. ) ;
#12 = DATE_AND_TIME ( #209, #130 ) ;
#13 = PERSON_AND_ORGANIZATION_ROLE ( 'creator' ) ;
#14 = AXIS2_PLACEMENT_3D ( 'NONE', #211, #104, #243 ) ;
#15 = FACE_OUTER_BOUND ( 'NONE', #188, .T. ) ;
#16 = DATE_AND_TIME ( #229, #135 ) ;
#17 = CC_DESIGN_PERSON_AND_ORGANIZATION_ASSIGNMENT ( #237, #13, ( #207 ) ) ;
#18 = CARTESIAN_POINT ( 'NONE',  ( 0.000000000000000000, 0.000000000000000000, 7.000000000000000000 ) ) ;
#19 = CC_DESIGN_PERSON_AND_ORGANIZATION_ASSIGNMENT ( #71, #193, ( #207 ) ) ;
#20 = PERSON_AND_ORGANIZATION ( #28, #175 ) ;
#21 = ORIENTED_EDGE ( 'NONE', *, *, #127, .T. ) ;
#22 = DIRECTION ( 'NONE',  ( -0.000000000000000000, -0.000000000000000000, -1.000000000000000000 ) ) ;
#23 = AXIS2_PLACEMENT_3D ( 'NONE', #117, #218, #241 ) ;
#24 = ORIENTED_EDGE ( 'NONE', *, *, #107, .T. ) ;
#25 = DIRECTION ( 'NONE',  ( 1.000000000000000000, 0.000000000000000000, 0.000000000000000000 ) ) ;
#26 = DIRECTION ( 'NONE',  ( 1.000000000000000000, 0.000000000000000000, -0.000000000000000000 ) ) ;
#27 = ORIENTED_EDGE ( 'NONE', *, *, #180, .F. ) ;
#28 = PERSON ( 'NEURÈENÝ', 'NEURÈENÝ', 'NEURÈENÝ', ('NEURÈENÝ'), ('NEURÈENÝ'), ('NEURÈENÝ') ) ;
#29 = DIRECTION ( 'NONE',  ( 1.000000000000000000, 0.000000000000000000, -0.000000000000000000 ) ) ;
#30 = ADVANCED_FACE ( 'NONE', ( #236 ), #121, .T. ) ;
#31 = COORDINATED_UNIVERSAL_TIME_OFFSET ( 1, 0, .AHEAD. ) ;
#32 = VERTEX_POINT ( 'NONE', #34 ) ;
#33 = ADVANCED_FACE ( 'NONE', ( #56 ), #53, .T. ) ;
#34 = CARTESIAN_POINT ( 'NONE',  ( 11.00000000000000000, 1.347111479062088405E-15, 7.000000000000000000 ) ) ;
#35 = VERTEX_POINT ( 'NONE', #100 ) ;
#36 = DIRECTION ( 'NONE',  ( 1.000000000000000000, 0.000000000000000000, -0.000000000000000000 ) ) ;
#37 = ORIENTED_EDGE ( 'NONE', *, *, #172, .F. ) ;
#38 = CARTESIAN_POINT ( 'NONE',  ( 0.000000000000000000, 0.000000000000000000, 507.0000000000000000 ) ) ;
#39 = CARTESIAN_POINT ( 'NONE',  ( 0.000000000000000000, 0.000000000000000000, 507.0000000000000000 ) ) ;
#40 = ORIENTED_EDGE ( 'NONE', *, *, #221, .F. ) ;
#41 = CARTESIAN_POINT ( 'NONE',  ( -7.750000000000000000, 0.000000000000000000, 507.0000000000000000 ) ) ;
#42 = DIRECTION ( 'NONE',  ( -0.000000000000000000, -0.000000000000000000, -1.000000000000000000 ) ) ;
#43 = APPLICATION_PROTOCOL_DEFINITION ( 'international standard', 'config_control_design', 1994, #110 ) ;
#44 = EDGE_CURVE ( 'NONE', #35, #32, #102, .T. ) ;
#45 = CIRCLE ( 'NONE', #55, 11.00000000000000000 ) ;
#46 = VECTOR ( 'NONE', #22, 1000.000000000000000 ) ;
#47 = AXIS2_PLACEMENT_3D ( 'NONE', #7, #9, #29 ) ;
#48 = APPROVAL_PERSON_ORGANIZATION ( #181, #108, #253 ) ;
#49 = APPLICATION_CONTEXT ( 'configuration controlled 3d designs of mechanical parts and assemblies' ) ;
#50 = ADVANCED_FACE ( 'NONE', ( #139 ), #73, .T. ) ;
#51 = PERSON_AND_ORGANIZATION ( #28, #175 ) ;
#52 = APPROVAL ( #190, 'NEURÈENÝ' ) ;
#53 = CYLINDRICAL_SURFACE ( 'NONE', #185, 7.750000000000000000 ) ;
#54 = ORIENTED_EDGE ( 'NONE', *, *, #172, .T. ) ;
#55 = AXIS2_PLACEMENT_3D ( 'NONE', #171, #85, #67 ) ;
#56 = FACE_OUTER_BOUND ( 'NONE', #159, .T. ) ;
#57 = EDGE_LOOP ( 'NONE', ( #138, #21 ) ) ;
#58 = CARTESIAN_POINT ( 'NONE',  ( 0.000000000000000000, 0.000000000000000000, 7.000000000000000000 ) ) ;
#59 = ORIENTED_EDGE ( 'NONE', *, *, #68, .T. ) ;
#60 = LINE ( 'NONE', #95, #225 ) ;
#61 = FACE_OUTER_BOUND ( 'NONE', #164, .T. ) ;
#62 = AXIS2_PLACEMENT_3D ( 'NONE', #70, #232, #197 ) ;
#63 = CARTESIAN_POINT ( 'NONE',  ( -7.750000000000000000, 0.000000000000000000, 507.0000000000000000 ) ) ;
#64 = EDGE_CURVE ( 'NONE', #72, #156, #129, .T. ) ;
#65 = DIRECTION ( 'NONE',  ( 0.000000000000000000, 0.000000000000000000, 1.000000000000000000 ) ) ;
#66 = PRODUCT_RELATED_PRODUCT_CATEGORY ( 'detail', '', ( #106 ) ) ;
#67 = DIRECTION ( 'NONE',  ( 1.000000000000000000, 0.000000000000000000, 0.000000000000000000 ) ) ;
#68 = EDGE_CURVE ( 'NONE', #32, #114, #195, .T. ) ;
#69 = SHAPE_DEFINITION_REPRESENTATION ( #144, #105 ) ;
#70 = CARTESIAN_POINT ( 'NONE',  ( 0.000000000000000000, 0.000000000000000000, 507.0000000000000000 ) ) ;
#71 = PERSON_AND_ORGANIZATION ( #28, #175 ) ;
#72 = VERTEX_POINT ( 'NONE', #167 ) ;
#73 = PLANE ( 'NONE',  #246 ) ;
#74 = DATE_TIME_ROLE ( 'creation_date' ) ;
#75 = ORIENTED_EDGE ( 'NONE', *, *, #192, .F. ) ;
#76 = VECTOR ( 'NONE', #206, 1000.000000000000000 ) ;
#77 = CARTESIAN_POINT ( 'NONE',  ( 0.000000000000000000, 0.000000000000000000, 0.000000000000000000 ) ) ;
#78 = ORIENTED_EDGE ( 'NONE', *, *, #44, .F. ) ;
#79 = CARTESIAN_POINT ( 'NONE',  ( 11.00000000000000000, 1.347111479062088405E-15, 7.000000000000000000 ) ) ;
#80 = VERTEX_POINT ( 'NONE', #161 ) ;
#81 = PLANE ( 'NONE',  #47 ) ;
#82 = CIRCLE ( 'NONE', #208, 11.00000000000000000 ) ;
#83 = CC_DESIGN_PERSON_AND_ORGANIZATION_ASSIGNMENT ( #51, #178, ( #126 ) ) ;
#84 = CARTESIAN_POINT ( 'NONE',  ( 0.000000000000000000, 0.000000000000000000, 0.000000000000000000 ) ) ;
#85 = DIRECTION ( 'NONE',  ( 0.000000000000000000, 0.000000000000000000, 1.000000000000000000 ) ) ;
#86 = CC_DESIGN_APPROVAL ( #108, ( #207 ) ) ;
#87 = DATE_AND_TIME ( #131, #248 ) ;
#88 = COORDINATED_UNIVERSAL_TIME_OFFSET ( 1, 0, .AHEAD. ) ;
#89 = CIRCLE ( 'NONE', #14, 7.750000000000000000 ) ;
#90 = DIRECTION ( 'NONE',  ( 0.000000000000000000, 0.000000000000000000, 1.000000000000000000 ) ) ;
#91 = ORIENTED_EDGE ( 'NONE', *, *, #223, .F. ) ;
#92 = CARTESIAN_POINT ( 'NONE',  ( 0.000000000000000000, 0.000000000000000000, 7.000000000000000000 ) ) ;
#93 = APPROVAL_DATE_TIME ( #212, #52 ) ;
#94 = AXIS2_PLACEMENT_3D ( 'NONE', #133, #203, #25 ) ;
#95 = CARTESIAN_POINT ( 'NONE',  ( -11.00000000000000000, 0.000000000000000000, 7.000000000000000000 ) ) ;
#96 = EDGE_LOOP ( 'NONE', ( #75, #91 ) ) ;
#97 =( GEOMETRIC_REPRESENTATION_CONTEXT ( 3 ) GLOBAL_UNCERTAINTY_ASSIGNED_CONTEXT ( ( #152 ) ) GLOBAL_UNIT_ASSIGNED_CONTEXT ( ( #146, #226, #120 ) ) REPRESENTATION_CONTEXT ( 'NONE', 'WORKASPACE' ) );
#98 = DIRECTION ( 'NONE',  ( 0.000000000000000000, 0.000000000000000000, 1.000000000000000000 ) ) ;
#99 = DIRECTION ( 'NONE',  ( -0.000000000000000000, -0.000000000000000000, -1.000000000000000000 ) ) ;
#100 = CARTESIAN_POINT ( 'NONE',  ( -11.00000000000000000, 0.000000000000000000, 7.000000000000000000 ) ) ;
#101 = PERSON_AND_ORGANIZATION ( #28, #175 ) ;
#102 = CIRCLE ( 'NONE', #94, 11.00000000000000000 ) ;
#103 = CARTESIAN_POINT ( 'NONE',  ( 7.750000000000000000, 9.491012693391987787E-16, 507.0000000000000000 ) ) ;
#104 = DIRECTION ( 'NONE',  ( 0.000000000000000000, 0.000000000000000000, 1.000000000000000000 ) ) ;
#105 = ADVANCED_BREP_SHAPE_REPRESENTATION ( '522f', ( #198, #8 ), #97 ) ;
#106 = PRODUCT ( '522f', '522f', '', ( #123 ) ) ;
#107 = EDGE_CURVE ( 'NONE', #35, #80, #60, .T. ) ;
#108 = APPROVAL ( #183, 'NEURÈENÝ' ) ;
#109 = COORDINATED_UNIVERSAL_TIME_OFFSET ( 1, 0, .AHEAD. ) ;
#110 = APPLICATION_CONTEXT ( 'configuration controlled 3d designs of mechanical parts and assemblies' ) ;
#111 = PERSON_AND_ORGANIZATION_ROLE ( 'creator' ) ;
#112 = CIRCLE ( 'NONE', #210, 11.00000000000000000 ) ;
#113 = DIRECTION ( 'NONE',  ( -0.000000000000000000, -0.000000000000000000, -1.000000000000000000 ) ) ;
#114 = VERTEX_POINT ( 'NONE', #142 ) ;
#115 = DIRECTION ( 'NONE',  ( 0.000000000000000000, 0.000000000000000000, 1.000000000000000000 ) ) ;
#116 = DATE_TIME_ROLE ( 'classification_date' ) ;
#117 = CARTESIAN_POINT ( 'NONE',  ( 0.000000000000000000, 0.000000000000000000, 7.000000000000000000 ) ) ;
#118 = ORIENTED_EDGE ( 'NONE', *, *, #192, .T. ) ;
#119 = DIRECTION ( 'NONE',  ( -0.000000000000000000, -0.000000000000000000, -1.000000000000000000 ) ) ;
#120 =( NAMED_UNIT ( * ) SI_UNIT ( $, .STERADIAN. ) SOLID_ANGLE_UNIT ( ) );
#121 = CYLINDRICAL_SURFACE ( 'NONE', #132, 11.00000000000000000 ) ;
#122 = ORIENTED_EDGE ( 'NONE', *, *, #11, .T. ) ;
#123 = MECHANICAL_CONTEXT ( 'NONE', #49, 'mechanical' ) ;
#124 = FACE_OUTER_BOUND ( 'NONE', #242, .T. ) ;
#125 = PERSON_AND_ORGANIZATION ( #28, #175 ) ;
#126 = SECURITY_CLASSIFICATION ( '', '', #233 ) ;
#127 = EDGE_CURVE ( 'NONE', #202, #214, #3, .T. ) ;
#128 = ADVANCED_FACE ( 'NONE', ( #255 ), #186, .F. ) ;
#129 = CIRCLE ( 'NONE', #23, 7.750000000000000000 ) ;
#130 = LOCAL_TIME ( 19, 8, 27.00000000000000000, #109 ) ;
#131 = CALENDAR_DATE ( 2022, 7, 7 ) ;
#132 = AXIS2_PLACEMENT_3D ( 'NONE', #92, #113, #187 ) ;
#133 = CARTESIAN_POINT ( 'NONE',  ( 0.000000000000000000, 0.000000000000000000, 7.000000000000000000 ) ) ;
#134 = APPROVAL_DATE_TIME ( #16, #108 ) ;
#135 = LOCAL_TIME ( 19, 8, 27.00000000000000000, #155 ) ;
#136 = ADVANCED_FACE ( 'NONE', ( #15 ), #252, .T. ) ;
#137 = DIRECTION ( 'NONE',  ( -1.000000000000000000, 0.000000000000000000, 0.000000000000000000 ) ) ;
#138 = ORIENTED_EDGE ( 'NONE', *, *, #158, .T. ) ;
#139 = FACE_OUTER_BOUND ( 'NONE', #57, .T. ) ;
#140 = ORIENTED_EDGE ( 'NONE', *, *, #223, .T. ) ;
#141 = CARTESIAN_POINT ( 'NONE',  ( 0.000000000000000000, 0.000000000000000000, 0.000000000000000000 ) ) ;
#142 = CARTESIAN_POINT ( 'NONE',  ( 11.00000000000000000, 1.347111479062088405E-15, 0.000000000000000000 ) ) ;
#143 = CYLINDRICAL_SURFACE ( 'NONE', #154, 7.750000000000000000 ) ;
#144 = PRODUCT_DEFINITION_SHAPE ( 'NONE', 'NONE',  #10 ) ;
#145 = DIRECTION ( 'NONE',  ( 1.000000000000000000, 0.000000000000000000, 0.000000000000000000 ) ) ;
#146 =( LENGTH_UNIT ( ) NAMED_UNIT ( * ) SI_UNIT ( .MILLI., .METRE. ) );
#147 = CC_DESIGN_DATE_AND_TIME_ASSIGNMENT ( #230, #116, ( #126 ) ) ;
#148 = CC_DESIGN_PERSON_AND_ORGANIZATION_ASSIGNMENT ( #101, #224, ( #106 ) ) ;
#149 = AXIS2_PLACEMENT_3D ( 'NONE', #77, #239, #26 ) ;
#150 = CC_DESIGN_APPROVAL ( #228, ( #126 ) ) ;
#151 = CALENDAR_DATE ( 2022, 7, 7 ) ;
#152 = UNCERTAINTY_MEASURE_WITH_UNIT (LENGTH_MEASURE( 1.000000000000000082E-05 ), #146, 'distance_accuracy_value', 'NONE');
#153 = CIRCLE ( 'NONE', #62, 7.750000000000000000 ) ;
#154 = AXIS2_PLACEMENT_3D ( 'NONE', #39, #42, #189 ) ;
#155 = COORDINATED_UNIVERSAL_TIME_OFFSET ( 1, 0, .AHEAD. ) ;
#156 = VERTEX_POINT ( 'NONE', #201 ) ;
#157 = PERSON_AND_ORGANIZATION ( #28, #175 ) ;
#158 = EDGE_CURVE ( 'NONE', #214, #202, #153, .T. ) ;
#159 = EDGE_LOOP ( 'NONE', ( #27, #2, #213, #54 ) ) ;
#160 = CC_DESIGN_DATE_AND_TIME_ASSIGNMENT ( #87, #74, ( #10 ) ) ;
#161 = CARTESIAN_POINT ( 'NONE',  ( -11.00000000000000000, 0.000000000000000000, 0.000000000000000000 ) ) ;
#162 = CALENDAR_DATE ( 2022, 7, 7 ) ;
#163 = CC_DESIGN_SECURITY_CLASSIFICATION ( #126, ( #207 ) ) ;
#164 = EDGE_LOOP ( 'NONE', ( #168, #240, #204, #40 ) ) ;
#165 = DIRECTION ( 'NONE',  ( -0.000000000000000000, -0.000000000000000000, -1.000000000000000000 ) ) ;
#166 = EDGE_LOOP ( 'NONE', ( #5, #78, #24, #118 ) ) ;
#167 = CARTESIAN_POINT ( 'NONE',  ( 7.750000000000000000, 9.491012693391987787E-16, 7.000000000000000000 ) ) ;
#168 = ORIENTED_EDGE ( 'NONE', *, *, #127, .F. ) ;
#169 = FACE_BOUND ( 'NONE', #184, .T. ) ;
#170 = LINE ( 'NONE', #244, #76 ) ;
#171 = CARTESIAN_POINT ( 'NONE',  ( 0.000000000000000000, 0.000000000000000000, 0.000000000000000000 ) ) ;
#172 = EDGE_CURVE ( 'NONE', #156, #72, #89, .T. ) ;
#173 = ADVANCED_FACE ( 'NONE', ( #169, #124 ), #81, .T. ) ;
#174 = CC_DESIGN_APPROVAL ( #52, ( #10 ) ) ;
#175 = ORGANIZATION ( 'NEURÈENÝ', 'NEURÈENÝ', '' ) ;
#176 = APPROVAL_DATE_TIME ( #12, #228 ) ;
#177 = DESIGN_CONTEXT ( 'detailed design', #110, 'design' ) ;
#178 = PERSON_AND_ORGANIZATION_ROLE ( 'classification_officer' ) ;
#179 = CARTESIAN_POINT ( 'NONE',  ( 0.000000000000000000, 0.000000000000000000, 507.0000000000000000 ) ) ;
#180 = EDGE_CURVE ( 'NONE', #202, #72, #170, .T. ) ;
#181 = PERSON_AND_ORGANIZATION ( #28, #175 ) ;
#182 = DIRECTION ( 'NONE',  ( -0.000000000000000000, -0.000000000000000000, -1.000000000000000000 ) ) ;
#183 = APPROVAL_STATUS ( 'not_yet_approved' ) ;
#184 = EDGE_LOOP ( 'NONE', ( #37, #254 ) ) ;
#185 = AXIS2_PLACEMENT_3D ( 'NONE', #199, #182, #137 ) ;
#186 = PLANE ( 'NONE',  #149 ) ;
#187 = DIRECTION ( 'NONE',  ( -1.000000000000000000, 0.000000000000000000, 0.000000000000000000 ) ) ;
#188 = EDGE_LOOP ( 'NONE', ( #238, #59, #140, #200 ) ) ;
#189 = DIRECTION ( 'NONE',  ( -1.000000000000000000, 0.000000000000000000, 0.000000000000000000 ) ) ;
#190 = APPROVAL_STATUS ( 'not_yet_approved' ) ;
#191 = LOCAL_TIME ( 19, 8, 27.00000000000000000, #1 ) ;
#192 = EDGE_CURVE ( 'NONE', #80, #114, #82, .T. ) ;
#193 = PERSON_AND_ORGANIZATION_ROLE ( 'design_supplier' ) ;
#194 = AXIS2_PLACEMENT_3D ( 'NONE', #58, #119, #215 ) ;
#195 = LINE ( 'NONE', #79, #46 ) ;
#196 = VECTOR ( 'NONE', #99, 1000.000000000000000 ) ;
#197 = DIRECTION ( 'NONE',  ( 1.000000000000000000, 0.000000000000000000, 0.000000000000000000 ) ) ;
#198 = MANIFOLD_SOLID_BREP ( 'Pøidat vysunutím3', #217 ) ;
#199 = CARTESIAN_POINT ( 'NONE',  ( 0.000000000000000000, 0.000000000000000000, 507.0000000000000000 ) ) ;
#200 = ORIENTED_EDGE ( 'NONE', *, *, #107, .F. ) ;
#201 = CARTESIAN_POINT ( 'NONE',  ( -7.750000000000000000, 0.000000000000000000, 7.000000000000000000 ) ) ;
#202 = VERTEX_POINT ( 'NONE', #103 ) ;
#203 = DIRECTION ( 'NONE',  ( 0.000000000000000000, 0.000000000000000000, 1.000000000000000000 ) ) ;
#204 = ORIENTED_EDGE ( 'NONE', *, *, #64, .T. ) ;
#205 = CC_DESIGN_PERSON_AND_ORGANIZATION_ASSIGNMENT ( #20, #111, ( #10 ) ) ;
#206 = DIRECTION ( 'NONE',  ( -0.000000000000000000, -0.000000000000000000, -1.000000000000000000 ) ) ;
#207 = PRODUCT_DEFINITION_FORMATION_WITH_SPECIFIED_SOURCE ( 'LIBOVOLNÝ', '', #106, .NOT_KNOWN. ) ;
#208 = AXIS2_PLACEMENT_3D ( 'NONE', #141, #65, #222 ) ;
#209 = CALENDAR_DATE ( 2022, 7, 7 ) ;
#210 = AXIS2_PLACEMENT_3D ( 'NONE', #18, #90, #6 ) ;
#211 = CARTESIAN_POINT ( 'NONE',  ( 0.000000000000000000, 0.000000000000000000, 7.000000000000000000 ) ) ;
#212 = DATE_AND_TIME ( #151, #191 ) ;
#213 = ORIENTED_EDGE ( 'NONE', *, *, #221, .T. ) ;
#214 = VERTEX_POINT ( 'NONE', #63 ) ;
#215 = DIRECTION ( 'NONE',  ( -1.000000000000000000, 0.000000000000000000, 0.000000000000000000 ) ) ;
#216 = LINE ( 'NONE', #41, #196 ) ;
#217 = CLOSED_SHELL ( 'NONE', ( #249, #136, #30, #173, #128, #33, #50 ) ) ;
#218 = DIRECTION ( 'NONE',  ( 0.000000000000000000, 0.000000000000000000, 1.000000000000000000 ) ) ;
#219 = APPROVAL_PERSON_ORGANIZATION ( #157, #228, #250 ) ;
#220 = APPLICATION_PROTOCOL_DEFINITION ( 'international standard', 'config_control_design', 1994, #49 ) ;
#221 = EDGE_CURVE ( 'NONE', #214, #156, #216, .T. ) ;
#222 = DIRECTION ( 'NONE',  ( 1.000000000000000000, 0.000000000000000000, 0.000000000000000000 ) ) ;
#223 = EDGE_CURVE ( 'NONE', #114, #80, #45, .T. ) ;
#224 = PERSON_AND_ORGANIZATION_ROLE ( 'design_owner' ) ;
#225 = VECTOR ( 'NONE', #165, 1000.000000000000000 ) ;
#226 =( NAMED_UNIT ( * ) PLANE_ANGLE_UNIT ( ) SI_UNIT ( $, .RADIAN. ) );
#227 = LOCAL_TIME ( 19, 8, 27.00000000000000000, #31 ) ;
#228 = APPROVAL ( #251, 'NEURÈENÝ' ) ;
#229 = CALENDAR_DATE ( 2022, 7, 7 ) ;
#230 = DATE_AND_TIME ( #162, #227 ) ;
#231 = APPROVAL_ROLE ( '' ) ;
#232 = DIRECTION ( 'NONE',  ( 0.000000000000000000, 0.000000000000000000, 1.000000000000000000 ) ) ;
#233 = SECURITY_CLASSIFICATION_LEVEL ( 'unclassified' ) ;
#234 = ORIENTED_EDGE ( 'NONE', *, *, #44, .T. ) ;
#235 = APPROVAL_PERSON_ORGANIZATION ( #125, #52, #231 ) ;
#236 = FACE_OUTER_BOUND ( 'NONE', #166, .T. ) ;
#237 = PERSON_AND_ORGANIZATION ( #28, #175 ) ;
#238 = ORIENTED_EDGE ( 'NONE', *, *, #11, .F. ) ;
#239 = DIRECTION ( 'NONE',  ( 0.000000000000000000, 0.000000000000000000, 1.000000000000000000 ) ) ;
#240 = ORIENTED_EDGE ( 'NONE', *, *, #180, .T. ) ;
#241 = DIRECTION ( 'NONE',  ( 1.000000000000000000, 0.000000000000000000, 0.000000000000000000 ) ) ;
#242 = EDGE_LOOP ( 'NONE', ( #234, #122 ) ) ;
#243 = DIRECTION ( 'NONE',  ( 1.000000000000000000, 0.000000000000000000, 0.000000000000000000 ) ) ;
#244 = CARTESIAN_POINT ( 'NONE',  ( 7.750000000000000000, 9.491012693391987787E-16, 507.0000000000000000 ) ) ;
#245 = DIRECTION ( 'NONE',  ( 0.000000000000000000, 0.000000000000000000, 1.000000000000000000 ) ) ;
#246 = AXIS2_PLACEMENT_3D ( 'NONE', #179, #98, #36 ) ;
#247 = AXIS2_PLACEMENT_3D ( 'NONE', #38, #115, #4 ) ;
#248 = LOCAL_TIME ( 19, 8, 27.00000000000000000, #88 ) ;
#249 = ADVANCED_FACE ( 'NONE', ( #61 ), #143, .T. ) ;
#250 = APPROVAL_ROLE ( '' ) ;
#251 = APPROVAL_STATUS ( 'not_yet_approved' ) ;
#252 = CYLINDRICAL_SURFACE ( 'NONE', #194, 11.00000000000000000 ) ;
#253 = APPROVAL_ROLE ( '' ) ;
#254 = ORIENTED_EDGE ( 'NONE', *, *, #64, .F. ) ;
#255 = FACE_OUTER_BOUND ( 'NONE', #96, .T. ) ;
ENDSEC;
END-ISO-10303-21;
