ISO-10303-21;
HEADER;
FILE_DESCRIPTION (( 'STEP AP203' ),
    '1' );
FILE_NAME ('48b0.STEP',
    '2022-07-07T17:31:41',
    ( '' ),
    ( '' ),
    'SwSTEP 2.0',
    'SolidWorks 2019',
    '' );
FILE_SCHEMA (( 'CONFIG_CONTROL_DESIGN' ));
ENDSEC;

DATA;
#1 = DIRECTION ( 'NONE',  ( 1.000000000000000000, 0.000000000000000000, 0.000000000000000000 ) ) ;
#2 = DIRECTION ( 'NONE',  ( 0.000000000000000000, 0.000000000000000000, 1.000000000000000000 ) ) ;
#3 = CIRCLE ( 'NONE', #140, 7.000000000000000000 ) ;
#4 = PERSON_AND_ORGANIZATION_ROLE ( 'design_supplier' ) ;
#5 = PERSON_AND_ORGANIZATION ( #200, #235 ) ;
#6 = APPROVAL ( #97, 'NEURÈENÝ' ) ;
#7 = APPROVAL_ROLE ( '' ) ;
#8 = COORDINATED_UNIVERSAL_TIME_OFFSET ( 1, 0, .AHEAD. ) ;
#9 = EDGE_CURVE ( 'NONE', #182, #59, #78, .T. ) ;
#10 = PERSON_AND_ORGANIZATION ( #200, #235 ) ;
#11 =( NAMED_UNIT ( * ) SI_UNIT ( $, .STERADIAN. ) SOLID_ANGLE_UNIT ( ) );
#12 = DATE_AND_TIME ( #193, #181 ) ;
#13 = APPROVAL_DATE_TIME ( #194, #61 ) ;
#14 = CYLINDRICAL_SURFACE ( 'NONE', #178, 4.099999999999999645 ) ;
#15 = CARTESIAN_POINT ( 'NONE',  ( 0.000000000000000000, 0.000000000000000000, 320.0000000000000000 ) ) ;
#16 = ORIENTED_EDGE ( 'NONE', *, *, #171, .T. ) ;
#17 = VECTOR ( 'NONE', #207, 1000.000000000000000 ) ;
#18 = ORIENTED_EDGE ( 'NONE', *, *, #233, .F. ) ;
#19 = APPROVAL_PERSON_ORGANIZATION ( #111, #61, #211 ) ;
#20 = FACE_OUTER_BOUND ( 'NONE', #164, .T. ) ;
#21 = CARTESIAN_POINT ( 'NONE',  ( 0.000000000000000000, 0.000000000000000000, 5.000000000000000000 ) ) ;
#22 = PLANE ( 'NONE',  #118 ) ;
#23 = CC_DESIGN_PERSON_AND_ORGANIZATION_ASSIGNMENT ( #5, #4, ( #34 ) ) ;
#24 = CARTESIAN_POINT ( 'NONE',  ( 0.000000000000000000, 0.000000000000000000, 5.000000000000000000 ) ) ;
#25 = CARTESIAN_POINT ( 'NONE',  ( 7.000000000000000000, 8.572527594031473190E-16, 5.000000000000000000 ) ) ;
#26 = AXIS2_PLACEMENT_3D ( 'NONE', #41, #237, #65 ) ;
#27 = CALENDAR_DATE ( 2022, 7, 7 ) ;
#28 = CC_DESIGN_PERSON_AND_ORGANIZATION_ASSIGNMENT ( #109, #76, ( #89 ) ) ;
#29 = CALENDAR_DATE ( 2022, 7, 7 ) ;
#30 = CALENDAR_DATE ( 2022, 7, 7 ) ;
#31 = CARTESIAN_POINT ( 'NONE',  ( 0.000000000000000000, 0.000000000000000000, 0.000000000000000000 ) ) ;
#32 = COORDINATED_UNIVERSAL_TIME_OFFSET ( 1, 0, .AHEAD. ) ;
#33 = VERTEX_POINT ( 'NONE', #117 ) ;
#34 = PRODUCT_DEFINITION_FORMATION_WITH_SPECIFIED_SOURCE ( 'LIBOVOLNÝ', '', #44, .NOT_KNOWN. ) ;
#35 = EDGE_LOOP ( 'NONE', ( #249, #179, #199, #138 ) ) ;
#36 = ORIENTED_EDGE ( 'NONE', *, *, #86, .T. ) ;
#37 = DIRECTION ( 'NONE',  ( -0.000000000000000000, -0.000000000000000000, -1.000000000000000000 ) ) ;
#38 = UNCERTAINTY_MEASURE_WITH_UNIT (LENGTH_MEASURE( 1.000000000000000082E-05 ), #154, 'distance_accuracy_value', 'NONE');
#39 = LINE ( 'NONE', #219, #17 ) ;
#40 = LINE ( 'NONE', #104, #232 ) ;
#41 = CARTESIAN_POINT ( 'NONE',  ( 0.000000000000000000, 0.000000000000000000, 320.0000000000000000 ) ) ;
#42 = DIRECTION ( 'NONE',  ( 0.000000000000000000, 0.000000000000000000, 1.000000000000000000 ) ) ;
#43 = CIRCLE ( 'NONE', #96, 4.099999999999999645 ) ;
#44 = PRODUCT ( '48b0', '48b0', '', ( #71 ) ) ;
#45 = PLANE ( 'NONE',  #62 ) ;
#46 = CC_DESIGN_DATE_AND_TIME_ASSIGNMENT ( #151, #70, ( #47 ) ) ;
#47 = SECURITY_CLASSIFICATION ( '', '', #88 ) ;
#48 = COORDINATED_UNIVERSAL_TIME_OFFSET ( 1, 0, .AHEAD. ) ;
#49 = CC_DESIGN_PERSON_AND_ORGANIZATION_ASSIGNMENT ( #246, #133, ( #44 ) ) ;
#50 = CARTESIAN_POINT ( 'NONE',  ( 0.000000000000000000, 0.000000000000000000, 0.000000000000000000 ) ) ;
#51 =( NAMED_UNIT ( * ) PLANE_ANGLE_UNIT ( ) SI_UNIT ( $, .RADIAN. ) );
#52 = APPROVAL_STATUS ( 'not_yet_approved' ) ;
#53 = CALENDAR_DATE ( 2022, 7, 7 ) ;
#54 = CARTESIAN_POINT ( 'NONE',  ( 0.000000000000000000, 0.000000000000000000, 5.000000000000000000 ) ) ;
#55 = VECTOR ( 'NONE', #37, 1000.000000000000000 ) ;
#56 = EDGE_LOOP ( 'NONE', ( #16, #195 ) ) ;
#57 = EDGE_CURVE ( 'NONE', #182, #95, #221, .T. ) ;
#58 = ORIENTED_EDGE ( 'NONE', *, *, #180, .T. ) ;
#59 = VERTEX_POINT ( 'NONE', #228 ) ;
#60 = FACE_OUTER_BOUND ( 'NONE', #217, .T. ) ;
#61 = APPROVAL ( #52, 'NEURÈENÝ' ) ;
#62 = AXIS2_PLACEMENT_3D ( 'NONE', #184, #2, #253 ) ;
#63 = CARTESIAN_POINT ( 'NONE',  ( 0.000000000000000000, 0.000000000000000000, 0.000000000000000000 ) ) ;
#64 = DIRECTION ( 'NONE',  ( -1.000000000000000000, 0.000000000000000000, 0.000000000000000000 ) ) ;
#65 = DIRECTION ( 'NONE',  ( 1.000000000000000000, 0.000000000000000000, 0.000000000000000000 ) ) ;
#66 = AXIS2_PLACEMENT_3D ( 'NONE', #222, #84, #120 ) ;
#67 = DIRECTION ( 'NONE',  ( -0.000000000000000000, -0.000000000000000000, -1.000000000000000000 ) ) ;
#68 = PERSON_AND_ORGANIZATION_ROLE ( 'creator' ) ;
#69 = ADVANCED_FACE ( 'NONE', ( #20 ), #14, .T. ) ;
#70 = DATE_TIME_ROLE ( 'classification_date' ) ;
#71 = MECHANICAL_CONTEXT ( 'NONE', #203, 'mechanical' ) ;
#72 = COORDINATED_UNIVERSAL_TIME_OFFSET ( 1, 0, .AHEAD. ) ;
#73 = AXIS2_PLACEMENT_3D ( 'NONE', #54, #202, #183 ) ;
#74 = APPROVAL_DATE_TIME ( #12, #6 ) ;
#75 = APPROVAL ( #130, 'NEURÈENÝ' ) ;
#76 = PERSON_AND_ORGANIZATION_ROLE ( 'creator' ) ;
#77 = VERTEX_POINT ( 'NONE', #250 ) ;
#78 = LINE ( 'NONE', #231, #55 ) ;
#79 = ADVANCED_FACE ( 'NONE', ( #229 ), #240, .T. ) ;
#80 = ORIENTED_EDGE ( 'NONE', *, *, #86, .F. ) ;
#81 = ORIENTED_EDGE ( 'NONE', *, *, #180, .F. ) ;
#82 = PLANE ( 'NONE',  #216 ) ;
#83 = FACE_OUTER_BOUND ( 'NONE', #214, .T. ) ;
#84 = DIRECTION ( 'NONE',  ( 0.000000000000000000, 0.000000000000000000, 1.000000000000000000 ) ) ;
#85 = CARTESIAN_POINT ( 'NONE',  ( 0.000000000000000000, 0.000000000000000000, 320.0000000000000000 ) ) ;
#86 = EDGE_CURVE ( 'NONE', #77, #33, #100, .T. ) ;
#87 = APPROVAL_PERSON_ORGANIZATION ( #245, #6, #192 ) ;
#88 = SECURITY_CLASSIFICATION_LEVEL ( 'unclassified' ) ;
#89 = PRODUCT_DEFINITION ( 'NEZNÁMÝ', '', #34, #148 ) ;
#90 = LOCAL_TIME ( 19, 31, 41.00000000000000000, #48 ) ;
#91 = DIRECTION ( 'NONE',  ( 1.000000000000000000, 0.000000000000000000, 0.000000000000000000 ) ) ;
#92 = EDGE_CURVE ( 'NONE', #95, #115, #39, .T. ) ;
#93 = DIRECTION ( 'NONE',  ( 0.000000000000000000, 0.000000000000000000, 1.000000000000000000 ) ) ;
#94 = CARTESIAN_POINT ( 'NONE',  ( 0.000000000000000000, 0.000000000000000000, 0.000000000000000000 ) ) ;
#95 = VERTEX_POINT ( 'NONE', #186 ) ;
#96 = AXIS2_PLACEMENT_3D ( 'NONE', #227, #244, #191 ) ;
#97 = APPROVAL_STATUS ( 'not_yet_approved' ) ;
#98 = DIRECTION ( 'NONE',  ( -0.000000000000000000, -0.000000000000000000, -1.000000000000000000 ) ) ;
#99 = ORIENTED_EDGE ( 'NONE', *, *, #57, .T. ) ;
#100 = CIRCLE ( 'NONE', #131, 4.099999999999999645 ) ;
#101 = ORIENTED_EDGE ( 'NONE', *, *, #238, .F. ) ;
#102 = VERTEX_POINT ( 'NONE', #185 ) ;
#103 = LINE ( 'NONE', #165, #152 ) ;
#104 = CARTESIAN_POINT ( 'NONE',  ( 4.099999999999999645, 5.021051876504147385E-16, 320.0000000000000000 ) ) ;
#105 = DIRECTION ( 'NONE',  ( -0.000000000000000000, -0.000000000000000000, -1.000000000000000000 ) ) ;
#106 = FACE_BOUND ( 'NONE', #136, .T. ) ;
#107 = CC_DESIGN_APPROVAL ( #61, ( #89 ) ) ;
#108 = CIRCLE ( 'NONE', #252, 7.000000000000000000 ) ;
#109 = PERSON_AND_ORGANIZATION ( #200, #235 ) ;
#110 = DIRECTION ( 'NONE',  ( 1.000000000000000000, 0.000000000000000000, 0.000000000000000000 ) ) ;
#111 = PERSON_AND_ORGANIZATION ( #200, #235 ) ;
#112 = DATE_AND_TIME ( #53, #128 ) ;
#113 = ADVANCED_FACE ( 'NONE', ( #60 ), #236, .T. ) ;
#114 = ORIENTED_EDGE ( 'NONE', *, *, #233, .T. ) ;
#115 = VERTEX_POINT ( 'NONE', #168 ) ;
#116 = ORIENTED_EDGE ( 'NONE', *, *, #57, .F. ) ;
#117 = CARTESIAN_POINT ( 'NONE',  ( 4.099999999999999645, 5.021051876504147385E-16, 5.000000000000000000 ) ) ;
#118 = AXIS2_PLACEMENT_3D ( 'NONE', #218, #42, #122 ) ;
#119 = EDGE_CURVE ( 'NONE', #95, #182, #3, .T. ) ;
#120 = DIRECTION ( 'NONE',  ( 1.000000000000000000, 0.000000000000000000, 0.000000000000000000 ) ) ;
#121 = DIRECTION ( 'NONE',  ( -0.000000000000000000, -0.000000000000000000, -1.000000000000000000 ) ) ;
#122 = DIRECTION ( 'NONE',  ( 1.000000000000000000, 0.000000000000000000, -0.000000000000000000 ) ) ;
#123 = ADVANCED_FACE ( 'NONE', ( #83 ), #82, .F. ) ;
#124 = CIRCLE ( 'NONE', #208, 7.000000000000000000 ) ;
#125 = DIRECTION ( 'NONE',  ( -0.000000000000000000, -0.000000000000000000, -1.000000000000000000 ) ) ;
#126 = AXIS2_PLACEMENT_3D ( 'NONE', #144, #121, #169 ) ;
#127 = APPROVAL_DATE_TIME ( #188, #75 ) ;
#128 = LOCAL_TIME ( 19, 31, 41.00000000000000000, #159 ) ;
#129 = PRODUCT_RELATED_PRODUCT_CATEGORY ( 'detail', '', ( #44 ) ) ;
#130 = APPROVAL_STATUS ( 'not_yet_approved' ) ;
#131 = AXIS2_PLACEMENT_3D ( 'NONE', #21, #206, #234 ) ;
#132 = DIRECTION ( 'NONE',  ( 0.000000000000000000, 0.000000000000000000, 1.000000000000000000 ) ) ;
#133 = PERSON_AND_ORGANIZATION_ROLE ( 'design_owner' ) ;
#134 = CC_DESIGN_PERSON_AND_ORGANIZATION_ASSIGNMENT ( #209, #210, ( #47 ) ) ;
#135 = ORIENTED_EDGE ( 'NONE', *, *, #153, .F. ) ;
#136 = EDGE_LOOP ( 'NONE', ( #80, #101 ) ) ;
#137 = MANIFOLD_SOLID_BREP ( 'Pøidat vysunutím3', #172 ) ;
#138 = ORIENTED_EDGE ( 'NONE', *, *, #242, .T. ) ;
#139 = ORIENTED_EDGE ( 'NONE', *, *, #146, .T. ) ;
#140 = AXIS2_PLACEMENT_3D ( 'NONE', #24, #254, #1 ) ;
#141 = ADVANCED_FACE ( 'NONE', ( #220 ), #150, .T. ) ;
#142 = DIRECTION ( 'NONE',  ( 1.000000000000000000, 0.000000000000000000, -0.000000000000000000 ) ) ;
#143 = CC_DESIGN_APPROVAL ( #75, ( #47 ) ) ;
#144 = CARTESIAN_POINT ( 'NONE',  ( 0.000000000000000000, 0.000000000000000000, 5.000000000000000000 ) ) ;
#145 = FACE_OUTER_BOUND ( 'NONE', #56, .T. ) ;
#146 = EDGE_CURVE ( 'NONE', #102, #33, #40, .T. ) ;
#147 = DIRECTION ( 'NONE',  ( 0.000000000000000000, 0.000000000000000000, 1.000000000000000000 ) ) ;
#148 = DESIGN_CONTEXT ( 'detailed design', #170, 'design' ) ;
#149 = LOCAL_TIME ( 19, 31, 41.00000000000000000, #8 ) ;
#150 = CYLINDRICAL_SURFACE ( 'NONE', #126, 7.000000000000000000 ) ;
#151 = DATE_AND_TIME ( #27, #149 ) ;
#152 = VECTOR ( 'NONE', #125, 1000.000000000000000 ) ;
#153 = EDGE_CURVE ( 'NONE', #102, #161, #241, .T. ) ;
#154 =( LENGTH_UNIT ( ) NAMED_UNIT ( * ) SI_UNIT ( .MILLI., .METRE. ) );
#155 = ADVANCED_BREP_SHAPE_REPRESENTATION ( '48b0', ( #137, #223 ), #255 ) ;
#156 = AXIS2_PLACEMENT_3D ( 'NONE', #85, #204, #64 ) ;
#157 = LOCAL_TIME ( 19, 31, 41.00000000000000000, #32 ) ;
#158 = DIRECTION ( 'NONE',  ( 0.000000000000000000, 0.000000000000000000, 1.000000000000000000 ) ) ;
#159 = COORDINATED_UNIVERSAL_TIME_OFFSET ( 1, 0, .AHEAD. ) ;
#160 = ORIENTED_EDGE ( 'NONE', *, *, #171, .F. ) ;
#161 = VERTEX_POINT ( 'NONE', #224 ) ;
#162 = ORIENTED_EDGE ( 'NONE', *, *, #119, .T. ) ;
#163 = ADVANCED_FACE ( 'NONE', ( #145 ), #22, .T. ) ;
#164 = EDGE_LOOP ( 'NONE', ( #135, #139, #215, #81 ) ) ;
#165 = CARTESIAN_POINT ( 'NONE',  ( -4.099999999999999645, 0.000000000000000000, 320.0000000000000000 ) ) ;
#166 = CC_DESIGN_APPROVAL ( #6, ( #34 ) ) ;
#167 = DIRECTION ( 'NONE',  ( -1.000000000000000000, 0.000000000000000000, 0.000000000000000000 ) ) ;
#168 = CARTESIAN_POINT ( 'NONE',  ( -7.000000000000000000, 0.000000000000000000, 0.000000000000000000 ) ) ;
#169 = DIRECTION ( 'NONE',  ( -1.000000000000000000, 0.000000000000000000, 0.000000000000000000 ) ) ;
#170 = APPLICATION_CONTEXT ( 'configuration controlled 3d designs of mechanical parts and assemblies' ) ;
#171 = EDGE_CURVE ( 'NONE', #161, #102, #173, .T. ) ;
#172 = CLOSED_SHELL ( 'NONE', ( #69, #141, #79, #190, #123, #113, #163 ) ) ;
#173 = CIRCLE ( 'NONE', #26, 4.099999999999999645 ) ;
#174 = APPLICATION_PROTOCOL_DEFINITION ( 'international standard', 'config_control_design', 1994, #203 ) ;
#175 = ORIENTED_EDGE ( 'NONE', *, *, #242, .F. ) ;
#176 = CC_DESIGN_PERSON_AND_ORGANIZATION_ASSIGNMENT ( #10, #68, ( #34 ) ) ;
#177 = DIRECTION ( 'NONE',  ( -1.000000000000000000, 0.000000000000000000, 0.000000000000000000 ) ) ;
#178 = AXIS2_PLACEMENT_3D ( 'NONE', #15, #98, #177 ) ;
#179 = ORIENTED_EDGE ( 'NONE', *, *, #119, .F. ) ;
#180 = EDGE_CURVE ( 'NONE', #161, #77, #103, .T. ) ;
#181 = LOCAL_TIME ( 19, 31, 41.00000000000000000, #72 ) ;
#182 = VERTEX_POINT ( 'NONE', #25 ) ;
#183 = DIRECTION ( 'NONE',  ( 1.000000000000000000, 0.000000000000000000, 0.000000000000000000 ) ) ;
#184 = CARTESIAN_POINT ( 'NONE',  ( 0.000000000000000000, 0.000000000000000000, 5.000000000000000000 ) ) ;
#185 = CARTESIAN_POINT ( 'NONE',  ( 4.099999999999999645, 5.021051876504147385E-16, 320.0000000000000000 ) ) ;
#186 = CARTESIAN_POINT ( 'NONE',  ( -7.000000000000000000, 0.000000000000000000, 5.000000000000000000 ) ) ;
#187 = FACE_OUTER_BOUND ( 'NONE', #251, .T. ) ;
#188 = DATE_AND_TIME ( #29, #90 ) ;
#189 = PERSON_AND_ORGANIZATION ( #200, #235 ) ;
#190 = ADVANCED_FACE ( 'NONE', ( #106, #187 ), #45, .T. ) ;
#191 = DIRECTION ( 'NONE',  ( 1.000000000000000000, 0.000000000000000000, 0.000000000000000000 ) ) ;
#192 = APPROVAL_ROLE ( '' ) ;
#193 = CALENDAR_DATE ( 2022, 7, 7 ) ;
#194 = DATE_AND_TIME ( #30, #157 ) ;
#195 = ORIENTED_EDGE ( 'NONE', *, *, #153, .T. ) ;
#196 = APPROVAL_PERSON_ORGANIZATION ( #189, #75, #7 ) ;
#197 = DATE_TIME_ROLE ( 'creation_date' ) ;
#198 = ORIENTED_EDGE ( 'NONE', *, *, #146, .F. ) ;
#199 = ORIENTED_EDGE ( 'NONE', *, *, #92, .T. ) ;
#200 = PERSON ( 'NEURÈENÝ', 'NEURÈENÝ', 'NEURÈENÝ', ('NEURÈENÝ'), ('NEURÈENÝ'), ('NEURÈENÝ') ) ;
#201 = ORIENTED_EDGE ( 'NONE', *, *, #9, .T. ) ;
#202 = DIRECTION ( 'NONE',  ( 0.000000000000000000, 0.000000000000000000, 1.000000000000000000 ) ) ;
#203 = APPLICATION_CONTEXT ( 'configuration controlled 3d designs of mechanical parts and assemblies' ) ;
#204 = DIRECTION ( 'NONE',  ( -0.000000000000000000, -0.000000000000000000, -1.000000000000000000 ) ) ;
#205 = CARTESIAN_POINT ( 'NONE',  ( 0.000000000000000000, 0.000000000000000000, 5.000000000000000000 ) ) ;
#206 = DIRECTION ( 'NONE',  ( 0.000000000000000000, 0.000000000000000000, 1.000000000000000000 ) ) ;
#207 = DIRECTION ( 'NONE',  ( -0.000000000000000000, -0.000000000000000000, -1.000000000000000000 ) ) ;
#208 = AXIS2_PLACEMENT_3D ( 'NONE', #31, #93, #91 ) ;
#209 = PERSON_AND_ORGANIZATION ( #200, #235 ) ;
#210 = PERSON_AND_ORGANIZATION_ROLE ( 'classification_officer' ) ;
#211 = APPROVAL_ROLE ( '' ) ;
#212 = EDGE_LOOP ( 'NONE', ( #116, #201, #114, #230 ) ) ;
#213 = PRODUCT_DEFINITION_SHAPE ( 'NONE', 'NONE',  #89 ) ;
#214 = EDGE_LOOP ( 'NONE', ( #175, #18 ) ) ;
#215 = ORIENTED_EDGE ( 'NONE', *, *, #238, .T. ) ;
#216 = AXIS2_PLACEMENT_3D ( 'NONE', #63, #147, #142 ) ;
#217 = EDGE_LOOP ( 'NONE', ( #198, #160, #58, #36 ) ) ;
#218 = CARTESIAN_POINT ( 'NONE',  ( 0.000000000000000000, 0.000000000000000000, 320.0000000000000000 ) ) ;
#219 = CARTESIAN_POINT ( 'NONE',  ( -7.000000000000000000, 0.000000000000000000, 5.000000000000000000 ) ) ;
#220 = FACE_OUTER_BOUND ( 'NONE', #212, .T. ) ;
#221 = CIRCLE ( 'NONE', #73, 7.000000000000000000 ) ;
#222 = CARTESIAN_POINT ( 'NONE',  ( 0.000000000000000000, 0.000000000000000000, 320.0000000000000000 ) ) ;
#223 = AXIS2_PLACEMENT_3D ( 'NONE', #50, #158, #110 ) ;
#224 = CARTESIAN_POINT ( 'NONE',  ( -4.099999999999999645, 0.000000000000000000, 320.0000000000000000 ) ) ;
#225 = CC_DESIGN_DATE_AND_TIME_ASSIGNMENT ( #112, #197, ( #89 ) ) ;
#226 = APPLICATION_PROTOCOL_DEFINITION ( 'international standard', 'config_control_design', 1994, #170 ) ;
#227 = CARTESIAN_POINT ( 'NONE',  ( 0.000000000000000000, 0.000000000000000000, 5.000000000000000000 ) ) ;
#228 = CARTESIAN_POINT ( 'NONE',  ( 7.000000000000000000, 8.572527594031473190E-16, 0.000000000000000000 ) ) ;
#229 = FACE_OUTER_BOUND ( 'NONE', #35, .T. ) ;
#230 = ORIENTED_EDGE ( 'NONE', *, *, #92, .F. ) ;
#231 = CARTESIAN_POINT ( 'NONE',  ( 7.000000000000000000, 8.572527594031473190E-16, 5.000000000000000000 ) ) ;
#232 = VECTOR ( 'NONE', #67, 1000.000000000000000 ) ;
#233 = EDGE_CURVE ( 'NONE', #59, #115, #108, .T. ) ;
#234 = DIRECTION ( 'NONE',  ( 1.000000000000000000, 0.000000000000000000, 0.000000000000000000 ) ) ;
#235 = ORGANIZATION ( 'NEURÈENÝ', 'NEURÈENÝ', '' ) ;
#236 = CYLINDRICAL_SURFACE ( 'NONE', #156, 4.099999999999999645 ) ;
#237 = DIRECTION ( 'NONE',  ( 0.000000000000000000, 0.000000000000000000, 1.000000000000000000 ) ) ;
#238 = EDGE_CURVE ( 'NONE', #33, #77, #43, .T. ) ;
#239 = AXIS2_PLACEMENT_3D ( 'NONE', #205, #105, #167 ) ;
#240 = CYLINDRICAL_SURFACE ( 'NONE', #239, 7.000000000000000000 ) ;
#241 = CIRCLE ( 'NONE', #66, 4.099999999999999645 ) ;
#242 = EDGE_CURVE ( 'NONE', #115, #59, #124, .T. ) ;
#243 = SHAPE_DEFINITION_REPRESENTATION ( #213, #155 ) ;
#244 = DIRECTION ( 'NONE',  ( 0.000000000000000000, 0.000000000000000000, 1.000000000000000000 ) ) ;
#245 = PERSON_AND_ORGANIZATION ( #200, #235 ) ;
#246 = PERSON_AND_ORGANIZATION ( #200, #235 ) ;
#247 = CC_DESIGN_SECURITY_CLASSIFICATION ( #47, ( #34 ) ) ;
#248 = DIRECTION ( 'NONE',  ( 1.000000000000000000, 0.000000000000000000, 0.000000000000000000 ) ) ;
#249 = ORIENTED_EDGE ( 'NONE', *, *, #9, .F. ) ;
#250 = CARTESIAN_POINT ( 'NONE',  ( -4.099999999999999645, 0.000000000000000000, 5.000000000000000000 ) ) ;
#251 = EDGE_LOOP ( 'NONE', ( #162, #99 ) ) ;
#252 = AXIS2_PLACEMENT_3D ( 'NONE', #94, #132, #248 ) ;
#253 = DIRECTION ( 'NONE',  ( 1.000000000000000000, 0.000000000000000000, -0.000000000000000000 ) ) ;
#254 = DIRECTION ( 'NONE',  ( 0.000000000000000000, 0.000000000000000000, 1.000000000000000000 ) ) ;
#255 =( GEOMETRIC_REPRESENTATION_CONTEXT ( 3 ) GLOBAL_UNCERTAINTY_ASSIGNED_CONTEXT ( ( #38 ) ) GLOBAL_UNIT_ASSIGNED_CONTEXT ( ( #154, #51, #11 ) ) REPRESENTATION_CONTEXT ( 'NONE', 'WORKASPACE' ) );
ENDSEC;
END-ISO-10303-21;
