ISO-10303-21;
HEADER;
FILE_DESCRIPTION (( 'STEP AP203' ),
    '1' );
FILE_NAME ('c207.STEP',
    '2022-07-07T17:37:35',
    ( '' ),
    ( '' ),
    'SwSTEP 2.0',
    'SolidWorks 2019',
    '' );
FILE_SCHEMA (( 'CONFIG_CONTROL_DESIGN' ));
ENDSEC;

DATA;
#1 =( NAMED_UNIT ( * ) PLANE_ANGLE_UNIT ( ) SI_UNIT ( $, .RADIAN. ) );
#2 = ORIENTED_EDGE ( 'NONE', *, *, #222, .T. ) ;
#3 = APPROVAL_DATE_TIME ( #142, #241 ) ;
#4 = EDGE_LOOP ( 'NONE', ( #147, #185 ) ) ;
#5 = ORIENTED_EDGE ( 'NONE', *, *, #122, .T. ) ;
#6 = VERTEX_POINT ( 'NONE', #236 ) ;
#7 = DIRECTION ( 'NONE',  ( -0.000000000000000000, -0.000000000000000000, -1.000000000000000000 ) ) ;
#8 = AXIS2_PLACEMENT_3D ( 'NONE', #120, #35, #208 ) ;
#9 = AXIS2_PLACEMENT_3D ( 'NONE', #51, #14, #70 ) ;
#10 = SECURITY_CLASSIFICATION ( '', '', #32 ) ;
#11 = ADVANCED_FACE ( 'NONE', ( #129 ), #243, .T. ) ;
#12 = CARTESIAN_POINT ( 'NONE',  ( 0.000000000000000000, 0.000000000000000000, 165.0000000000000000 ) ) ;
#13 = AXIS2_PLACEMENT_3D ( 'NONE', #12, #178, #18 ) ;
#14 = DIRECTION ( 'NONE',  ( -0.000000000000000000, -0.000000000000000000, -1.000000000000000000 ) ) ;
#15 = CC_DESIGN_APPROVAL ( #39, ( #170 ) ) ;
#16 = FACE_OUTER_BOUND ( 'NONE', #88, .T. ) ;
#17 = EDGE_CURVE ( 'NONE', #218, #146, #217, .T. ) ;
#18 = DIRECTION ( 'NONE',  ( 1.000000000000000000, 0.000000000000000000, 0.000000000000000000 ) ) ;
#19 = DATE_AND_TIME ( #62, #201 ) ;
#20 = VECTOR ( 'NONE', #254, 1000.000000000000000 ) ;
#21 = CARTESIAN_POINT ( 'NONE',  ( 0.000000000000000000, 0.000000000000000000, 0.000000000000000000 ) ) ;
#22 = COORDINATED_UNIVERSAL_TIME_OFFSET ( 1, 0, .AHEAD. ) ;
#23 = CC_DESIGN_APPROVAL ( #245, ( #10 ) ) ;
#24 = VERTEX_POINT ( 'NONE', #221 ) ;
#25 = ORIENTED_EDGE ( 'NONE', *, *, #113, .F. ) ;
#26 = ORIENTED_EDGE ( 'NONE', *, *, #36, .T. ) ;
#27 = DIRECTION ( 'NONE',  ( -0.000000000000000000, -0.000000000000000000, -1.000000000000000000 ) ) ;
#28 = AXIS2_PLACEMENT_3D ( 'NONE', #61, #65, #144 ) ;
#29 = DIRECTION ( 'NONE',  ( 1.000000000000000000, 0.000000000000000000, 0.000000000000000000 ) ) ;
#30 = CARTESIAN_POINT ( 'NONE',  ( 0.000000000000000000, 0.000000000000000000, 0.000000000000000000 ) ) ;
#31 = CIRCLE ( 'NONE', #68, 6.000000000000000888 ) ;
#32 = SECURITY_CLASSIFICATION_LEVEL ( 'unclassified' ) ;
#33 = DIRECTION ( 'NONE',  ( 1.000000000000000000, 0.000000000000000000, -0.000000000000000000 ) ) ;
#34 = LOCAL_TIME ( 19, 37, 35.00000000000000000, #22 ) ;
#35 = DIRECTION ( 'NONE',  ( 0.000000000000000000, 0.000000000000000000, 1.000000000000000000 ) ) ;
#36 = EDGE_CURVE ( 'NONE', #24, #6, #45, .T. ) ;
#37 = APPLICATION_PROTOCOL_DEFINITION ( 'international standard', 'config_control_design', 1994, #179 ) ;
#38 = COORDINATED_UNIVERSAL_TIME_OFFSET ( 1, 0, .AHEAD. ) ;
#39 = APPROVAL ( #86, 'NEURÈENÝ' ) ;
#40 = CARTESIAN_POINT ( 'NONE',  ( -6.000000000000000888, 0.000000000000000000, 5.000000000000000000 ) ) ;
#41 = CALENDAR_DATE ( 2022, 7, 7 ) ;
#42 = ORIENTED_EDGE ( 'NONE', *, *, #181, .T. ) ;
#43 = ORIENTED_EDGE ( 'NONE', *, *, #181, .F. ) ;
#44 = APPLICATION_CONTEXT ( 'configuration controlled 3d designs of mechanical parts and assemblies' ) ;
#45 = LINE ( 'NONE', #40, #136 ) ;
#46 = AXIS2_PLACEMENT_3D ( 'NONE', #141, #202, #164 ) ;
#47 = EDGE_CURVE ( 'NONE', #6, #91, #31, .T. ) ;
#48 = PERSON_AND_ORGANIZATION ( #114, #50 ) ;
#49 = FACE_OUTER_BOUND ( 'NONE', #188, .T. ) ;
#50 = ORGANIZATION ( 'NEURÈENÝ', 'NEURÈENÝ', '' ) ;
#51 = CARTESIAN_POINT ( 'NONE',  ( 0.000000000000000000, 0.000000000000000000, 5.000000000000000000 ) ) ;
#52 = PERSON_AND_ORGANIZATION ( #114, #50 ) ;
#53 = CYLINDRICAL_SURFACE ( 'NONE', #131, 3.250000000000000444 ) ;
#54 = CYLINDRICAL_SURFACE ( 'NONE', #58, 6.000000000000000888 ) ;
#55 = APPROVAL_DATE_TIME ( #19, #39 ) ;
#56 = CC_DESIGN_PERSON_AND_ORGANIZATION_ASSIGNMENT ( #124, #125, ( #155 ) ) ;
#57 =( LENGTH_UNIT ( ) NAMED_UNIT ( * ) SI_UNIT ( .MILLI., .METRE. ) );
#58 = AXIS2_PLACEMENT_3D ( 'NONE', #133, #106, #143 ) ;
#59 = APPLICATION_PROTOCOL_DEFINITION ( 'international standard', 'config_control_design', 1994, #44 ) ;
#60 = EDGE_CURVE ( 'NONE', #218, #64, #176, .T. ) ;
#61 = CARTESIAN_POINT ( 'NONE',  ( 0.000000000000000000, 0.000000000000000000, 165.0000000000000000 ) ) ;
#62 = CALENDAR_DATE ( 2022, 7, 7 ) ;
#63 = ORIENTED_EDGE ( 'NONE', *, *, #222, .F. ) ;
#64 = VERTEX_POINT ( 'NONE', #74 ) ;
#65 = DIRECTION ( 'NONE',  ( 0.000000000000000000, 0.000000000000000000, 1.000000000000000000 ) ) ;
#66 = AXIS2_PLACEMENT_3D ( 'NONE', #198, #137, #172 ) ;
#67 = PRODUCT_RELATED_PRODUCT_CATEGORY ( 'detail', '', ( #193 ) ) ;
#68 = AXIS2_PLACEMENT_3D ( 'NONE', #126, #203, #29 ) ;
#69 = DESIGN_CONTEXT ( 'detailed design', #44, 'design' ) ;
#70 = DIRECTION ( 'NONE',  ( -1.000000000000000000, 0.000000000000000000, 0.000000000000000000 ) ) ;
#71 = PERSON_AND_ORGANIZATION_ROLE ( 'creator' ) ;
#72 = DIRECTION ( 'NONE',  ( 0.000000000000000000, 0.000000000000000000, 1.000000000000000000 ) ) ;
#73 = DATE_AND_TIME ( #99, #161 ) ;
#74 = CARTESIAN_POINT ( 'NONE',  ( 3.250000000000000444, 3.980102097228898231E-16, 165.0000000000000000 ) ) ;
#75 = DIRECTION ( 'NONE',  ( -0.000000000000000000, -0.000000000000000000, -1.000000000000000000 ) ) ;
#76 = CYLINDRICAL_SURFACE ( 'NONE', #132, 3.250000000000000444 ) ;
#77 = CIRCLE ( 'NONE', #104, 6.000000000000000888 ) ;
#78 =( GEOMETRIC_REPRESENTATION_CONTEXT ( 3 ) GLOBAL_UNCERTAINTY_ASSIGNED_CONTEXT ( ( #248 ) ) GLOBAL_UNIT_ASSIGNED_CONTEXT ( ( #57, #1, #84 ) ) REPRESENTATION_CONTEXT ( 'NONE', 'WORKASPACE' ) );
#79 = EDGE_CURVE ( 'NONE', #87, #24, #192, .T. ) ;
#80 = CARTESIAN_POINT ( 'NONE',  ( 6.000000000000000888, 7.347880794884120722E-16, 5.000000000000000000 ) ) ;
#81 = AXIS2_PLACEMENT_3D ( 'NONE', #138, #72, #115 ) ;
#82 = DATE_AND_TIME ( #41, #158 ) ;
#83 = CIRCLE ( 'NONE', #46, 3.250000000000000444 ) ;
#84 =( NAMED_UNIT ( * ) SI_UNIT ( $, .STERADIAN. ) SOLID_ANGLE_UNIT ( ) );
#85 = ORIENTED_EDGE ( 'NONE', *, *, #17, .F. ) ;
#86 = APPROVAL_STATUS ( 'not_yet_approved' ) ;
#87 = VERTEX_POINT ( 'NONE', #211 ) ;
#88 = EDGE_LOOP ( 'NONE', ( #109, #2, #111, #127 ) ) ;
#89 = CC_DESIGN_SECURITY_CLASSIFICATION ( #10, ( #170 ) ) ;
#90 = EDGE_LOOP ( 'NONE', ( #169, #204 ) ) ;
#91 = VERTEX_POINT ( 'NONE', #191 ) ;
#92 = CIRCLE ( 'NONE', #8, 3.250000000000000444 ) ;
#93 = CC_DESIGN_DATE_AND_TIME_ASSIGNMENT ( #82, #107, ( #155 ) ) ;
#94 = PRODUCT_DEFINITION_SHAPE ( 'NONE', 'NONE',  #155 ) ;
#95 = PERSON_AND_ORGANIZATION ( #114, #50 ) ;
#96 = DIRECTION ( 'NONE',  ( 0.000000000000000000, 0.000000000000000000, 1.000000000000000000 ) ) ;
#97 = APPROVAL_STATUS ( 'not_yet_approved' ) ;
#98 = DIRECTION ( 'NONE',  ( -0.000000000000000000, -0.000000000000000000, -1.000000000000000000 ) ) ;
#99 = CALENDAR_DATE ( 2022, 7, 7 ) ;
#100 = DIRECTION ( 'NONE',  ( 0.000000000000000000, 0.000000000000000000, 1.000000000000000000 ) ) ;
#101 = PLANE ( 'NONE',  #102 ) ;
#102 = AXIS2_PLACEMENT_3D ( 'NONE', #30, #96, #33 ) ;
#103 = CC_DESIGN_PERSON_AND_ORGANIZATION_ASSIGNMENT ( #123, #255, ( #193 ) ) ;
#104 = AXIS2_PLACEMENT_3D ( 'NONE', #224, #100, #227 ) ;
#105 = APPROVAL_STATUS ( 'not_yet_approved' ) ;
#106 = DIRECTION ( 'NONE',  ( -0.000000000000000000, -0.000000000000000000, -1.000000000000000000 ) ) ;
#107 = DATE_TIME_ROLE ( 'creation_date' ) ;
#108 = ORIENTED_EDGE ( 'NONE', *, *, #17, .T. ) ;
#109 = ORIENTED_EDGE ( 'NONE', *, *, #79, .F. ) ;
#110 = ADVANCED_FACE ( 'NONE', ( #210 ), #101, .F. ) ;
#111 = ORIENTED_EDGE ( 'NONE', *, *, #183, .T. ) ;
#112 = EDGE_LOOP ( 'NONE', ( #239, #5, #42, #85 ) ) ;
#113 = EDGE_CURVE ( 'NONE', #24, #87, #116, .T. ) ;
#114 = PERSON ( 'NEURÈENÝ', 'NEURÈENÝ', 'NEURÈENÝ', ('NEURÈENÝ'), ('NEURÈENÝ'), ('NEURÈENÝ') ) ;
#115 = DIRECTION ( 'NONE',  ( 1.000000000000000000, 0.000000000000000000, 0.000000000000000000 ) ) ;
#116 = CIRCLE ( 'NONE', #66, 6.000000000000000888 ) ;
#117 = SHAPE_DEFINITION_REPRESENTATION ( #94, #159 ) ;
#118 = PLANE ( 'NONE',  #237 ) ;
#119 = COORDINATED_UNIVERSAL_TIME_OFFSET ( 1, 0, .AHEAD. ) ;
#120 = CARTESIAN_POINT ( 'NONE',  ( 0.000000000000000000, 0.000000000000000000, 165.0000000000000000 ) ) ;
#121 = FACE_OUTER_BOUND ( 'NONE', #205, .T. ) ;
#122 = EDGE_CURVE ( 'NONE', #64, #166, #209, .T. ) ;
#123 = PERSON_AND_ORGANIZATION ( #114, #50 ) ;
#124 = PERSON_AND_ORGANIZATION ( #114, #50 ) ;
#125 = PERSON_AND_ORGANIZATION_ROLE ( 'creator' ) ;
#126 = CARTESIAN_POINT ( 'NONE',  ( 0.000000000000000000, 0.000000000000000000, 0.000000000000000000 ) ) ;
#127 = ORIENTED_EDGE ( 'NONE', *, *, #36, .F. ) ;
#128 = CC_DESIGN_PERSON_AND_ORGANIZATION_ASSIGNMENT ( #48, #71, ( #170 ) ) ;
#129 = FACE_OUTER_BOUND ( 'NONE', #4, .T. ) ;
#130 = ORIENTED_EDGE ( 'NONE', *, *, #220, .F. ) ;
#131 = AXIS2_PLACEMENT_3D ( 'NONE', #251, #75, #156 ) ;
#132 = AXIS2_PLACEMENT_3D ( 'NONE', #197, #98, #249 ) ;
#133 = CARTESIAN_POINT ( 'NONE',  ( 0.000000000000000000, 0.000000000000000000, 5.000000000000000000 ) ) ;
#134 = EDGE_CURVE ( 'NONE', #64, #218, #92, .T. ) ;
#135 = CARTESIAN_POINT ( 'NONE',  ( 3.250000000000000444, 3.980102097228898231E-16, 5.000000000000000000 ) ) ;
#136 = VECTOR ( 'NONE', #27, 1000.000000000000000 ) ;
#137 = DIRECTION ( 'NONE',  ( 0.000000000000000000, 0.000000000000000000, 1.000000000000000000 ) ) ;
#138 = CARTESIAN_POINT ( 'NONE',  ( 0.000000000000000000, 0.000000000000000000, 5.000000000000000000 ) ) ;
#139 = ADVANCED_FACE ( 'NONE', ( #121 ), #76, .T. ) ;
#140 = CC_DESIGN_APPROVAL ( #241, ( #155 ) ) ;
#141 = CARTESIAN_POINT ( 'NONE',  ( 0.000000000000000000, 0.000000000000000000, 5.000000000000000000 ) ) ;
#142 = DATE_AND_TIME ( #160, #34 ) ;
#143 = DIRECTION ( 'NONE',  ( -1.000000000000000000, 0.000000000000000000, 0.000000000000000000 ) ) ;
#144 = DIRECTION ( 'NONE',  ( 1.000000000000000000, 0.000000000000000000, -0.000000000000000000 ) ) ;
#145 = CARTESIAN_POINT ( 'NONE',  ( -3.250000000000000444, 0.000000000000000000, 165.0000000000000000 ) ) ;
#146 = VERTEX_POINT ( 'NONE', #157 ) ;
#147 = ORIENTED_EDGE ( 'NONE', *, *, #60, .T. ) ;
#148 = CARTESIAN_POINT ( 'NONE',  ( -3.250000000000000444, 0.000000000000000000, 165.0000000000000000 ) ) ;
#149 = PERSON_AND_ORGANIZATION_ROLE ( 'classification_officer' ) ;
#150 = CARTESIAN_POINT ( 'NONE',  ( 0.000000000000000000, 0.000000000000000000, 5.000000000000000000 ) ) ;
#151 = ADVANCED_FACE ( 'NONE', ( #232, #228 ), #118, .T. ) ;
#152 = COORDINATED_UNIVERSAL_TIME_OFFSET ( 1, 0, .AHEAD. ) ;
#153 = DIRECTION ( 'NONE',  ( 0.000000000000000000, 0.000000000000000000, 1.000000000000000000 ) ) ;
#154 = DIRECTION ( 'NONE',  ( 1.000000000000000000, 0.000000000000000000, 0.000000000000000000 ) ) ;
#155 = PRODUCT_DEFINITION ( 'NEZNÁMÝ', '', #170, #69 ) ;
#156 = DIRECTION ( 'NONE',  ( -1.000000000000000000, 0.000000000000000000, 0.000000000000000000 ) ) ;
#157 = CARTESIAN_POINT ( 'NONE',  ( -3.250000000000000444, 0.000000000000000000, 5.000000000000000000 ) ) ;
#158 = LOCAL_TIME ( 19, 37, 35.00000000000000000, #184 ) ;
#159 = ADVANCED_BREP_SHAPE_REPRESENTATION ( 'c207', ( #229, #246 ), #78 ) ;
#160 = CALENDAR_DATE ( 2022, 7, 7 ) ;
#161 = LOCAL_TIME ( 19, 37, 35.00000000000000000, #119 ) ;
#162 = DIRECTION ( 'NONE',  ( 0.000000000000000000, 0.000000000000000000, 1.000000000000000000 ) ) ;
#163 = ORIENTED_EDGE ( 'NONE', *, *, #113, .T. ) ;
#164 = DIRECTION ( 'NONE',  ( 1.000000000000000000, 0.000000000000000000, 0.000000000000000000 ) ) ;
#165 = ADVANCED_FACE ( 'NONE', ( #16 ), #226, .T. ) ;
#166 = VERTEX_POINT ( 'NONE', #135 ) ;
#167 = EDGE_LOOP ( 'NONE', ( #163, #219 ) ) ;
#168 = ORIENTED_EDGE ( 'NONE', *, *, #122, .F. ) ;
#169 = ORIENTED_EDGE ( 'NONE', *, *, #47, .F. ) ;
#170 = PRODUCT_DEFINITION_FORMATION_WITH_SPECIFIED_SOURCE ( 'LIBOVOLNÝ', '', #193, .NOT_KNOWN. ) ;
#171 = PERSON_AND_ORGANIZATION ( #114, #50 ) ;
#172 = DIRECTION ( 'NONE',  ( 1.000000000000000000, 0.000000000000000000, 0.000000000000000000 ) ) ;
#173 = DIRECTION ( 'NONE',  ( 0.000000000000000000, 0.000000000000000000, 1.000000000000000000 ) ) ;
#174 = DATE_TIME_ROLE ( 'classification_date' ) ;
#175 = FACE_OUTER_BOUND ( 'NONE', #112, .T. ) ;
#176 = CIRCLE ( 'NONE', #13, 3.250000000000000444 ) ;
#177 = PERSON_AND_ORGANIZATION_ROLE ( 'design_supplier' ) ;
#178 = DIRECTION ( 'NONE',  ( 0.000000000000000000, 0.000000000000000000, 1.000000000000000000 ) ) ;
#179 = APPLICATION_CONTEXT ( 'configuration controlled 3d designs of mechanical parts and assemblies' ) ;
#180 = AXIS2_PLACEMENT_3D ( 'NONE', #150, #173, #154 ) ;
#181 = EDGE_CURVE ( 'NONE', #166, #146, #230, .T. ) ;
#182 = MECHANICAL_CONTEXT ( 'NONE', #179, 'mechanical' ) ;
#183 = EDGE_CURVE ( 'NONE', #91, #6, #77, .T. ) ;
#184 = COORDINATED_UNIVERSAL_TIME_OFFSET ( 1, 0, .AHEAD. ) ;
#185 = ORIENTED_EDGE ( 'NONE', *, *, #134, .T. ) ;
#186 = EDGE_LOOP ( 'NONE', ( #130, #43 ) ) ;
#187 = ORIENTED_EDGE ( 'NONE', *, *, #220, .T. ) ;
#188 = EDGE_LOOP ( 'NONE', ( #63, #25, #26, #244 ) ) ;
#189 = ADVANCED_FACE ( 'NONE', ( #175 ), #53, .T. ) ;
#190 = LOCAL_TIME ( 19, 37, 35.00000000000000000, #152 ) ;
#191 = CARTESIAN_POINT ( 'NONE',  ( 6.000000000000000888, 7.347880794884120722E-16, 0.000000000000000000 ) ) ;
#192 = CIRCLE ( 'NONE', #81, 6.000000000000000888 ) ;
#193 = PRODUCT ( 'c207', 'c207', '', ( #182 ) ) ;
#194 = APPROVAL_ROLE ( '' ) ;
#195 = CARTESIAN_POINT ( 'NONE',  ( 0.000000000000000000, 0.000000000000000000, 5.000000000000000000 ) ) ;
#196 = APPROVAL_PERSON_ORGANIZATION ( #52, #245, #194 ) ;
#197 = CARTESIAN_POINT ( 'NONE',  ( 0.000000000000000000, 0.000000000000000000, 165.0000000000000000 ) ) ;
#198 = CARTESIAN_POINT ( 'NONE',  ( 0.000000000000000000, 0.000000000000000000, 5.000000000000000000 ) ) ;
#199 = ADVANCED_FACE ( 'NONE', ( #49 ), #54, .T. ) ;
#200 = PERSON_AND_ORGANIZATION ( #114, #50 ) ;
#201 = LOCAL_TIME ( 19, 37, 35.00000000000000000, #38 ) ;
#202 = DIRECTION ( 'NONE',  ( 0.000000000000000000, 0.000000000000000000, 1.000000000000000000 ) ) ;
#203 = DIRECTION ( 'NONE',  ( 0.000000000000000000, 0.000000000000000000, 1.000000000000000000 ) ) ;
#204 = ORIENTED_EDGE ( 'NONE', *, *, #183, .F. ) ;
#205 = EDGE_LOOP ( 'NONE', ( #168, #242, #108, #187 ) ) ;
#206 = CC_DESIGN_DATE_AND_TIME_ASSIGNMENT ( #73, #174, ( #10 ) ) ;
#207 = DATE_AND_TIME ( #231, #190 ) ;
#208 = DIRECTION ( 'NONE',  ( 1.000000000000000000, 0.000000000000000000, 0.000000000000000000 ) ) ;
#209 = LINE ( 'NONE', #250, #20 ) ;
#210 = FACE_OUTER_BOUND ( 'NONE', #90, .T. ) ;
#211 = CARTESIAN_POINT ( 'NONE',  ( 6.000000000000000888, 7.347880794884120722E-16, 5.000000000000000000 ) ) ;
#212 = CC_DESIGN_PERSON_AND_ORGANIZATION_ASSIGNMENT ( #171, #177, ( #170 ) ) ;
#213 = DIRECTION ( 'NONE',  ( 1.000000000000000000, 0.000000000000000000, 0.000000000000000000 ) ) ;
#214 = DIRECTION ( 'NONE',  ( -0.000000000000000000, -0.000000000000000000, -1.000000000000000000 ) ) ;
#215 = PERSON_AND_ORGANIZATION ( #114, #50 ) ;
#216 = APPROVAL_ROLE ( '' ) ;
#217 = LINE ( 'NONE', #148, #233 ) ;
#218 = VERTEX_POINT ( 'NONE', #145 ) ;
#219 = ORIENTED_EDGE ( 'NONE', *, *, #79, .T. ) ;
#220 = EDGE_CURVE ( 'NONE', #146, #166, #83, .T. ) ;
#221 = CARTESIAN_POINT ( 'NONE',  ( -6.000000000000000888, 0.000000000000000000, 5.000000000000000000 ) ) ;
#222 = EDGE_CURVE ( 'NONE', #87, #91, #234, .T. ) ;
#223 = APPROVAL_DATE_TIME ( #207, #245 ) ;
#224 = CARTESIAN_POINT ( 'NONE',  ( 0.000000000000000000, 0.000000000000000000, 0.000000000000000000 ) ) ;
#225 = VECTOR ( 'NONE', #214, 1000.000000000000000 ) ;
#226 = CYLINDRICAL_SURFACE ( 'NONE', #9, 6.000000000000000888 ) ;
#227 = DIRECTION ( 'NONE',  ( 1.000000000000000000, 0.000000000000000000, 0.000000000000000000 ) ) ;
#228 = FACE_OUTER_BOUND ( 'NONE', #167, .T. ) ;
#229 = MANIFOLD_SOLID_BREP ( 'Pøidat vysunutím3', #252 ) ;
#230 = CIRCLE ( 'NONE', #180, 3.250000000000000444 ) ;
#231 = CALENDAR_DATE ( 2022, 7, 7 ) ;
#232 = FACE_BOUND ( 'NONE', #186, .T. ) ;
#233 = VECTOR ( 'NONE', #7, 1000.000000000000000 ) ;
#234 = LINE ( 'NONE', #80, #225 ) ;
#235 = APPROVAL_PERSON_ORGANIZATION ( #200, #241, #216 ) ;
#236 = CARTESIAN_POINT ( 'NONE',  ( -6.000000000000000888, 0.000000000000000000, 0.000000000000000000 ) ) ;
#237 = AXIS2_PLACEMENT_3D ( 'NONE', #195, #153, #247 ) ;
#238 = APPROVAL_ROLE ( '' ) ;
#239 = ORIENTED_EDGE ( 'NONE', *, *, #134, .F. ) ;
#240 = APPROVAL_PERSON_ORGANIZATION ( #215, #39, #238 ) ;
#241 = APPROVAL ( #105, 'NEURÈENÝ' ) ;
#242 = ORIENTED_EDGE ( 'NONE', *, *, #60, .F. ) ;
#243 = PLANE ( 'NONE',  #28 ) ;
#244 = ORIENTED_EDGE ( 'NONE', *, *, #47, .T. ) ;
#245 = APPROVAL ( #97, 'NEURÈENÝ' ) ;
#246 = AXIS2_PLACEMENT_3D ( 'NONE', #21, #162, #213 ) ;
#247 = DIRECTION ( 'NONE',  ( 1.000000000000000000, 0.000000000000000000, -0.000000000000000000 ) ) ;
#248 = UNCERTAINTY_MEASURE_WITH_UNIT (LENGTH_MEASURE( 1.000000000000000082E-05 ), #57, 'distance_accuracy_value', 'NONE');
#249 = DIRECTION ( 'NONE',  ( -1.000000000000000000, 0.000000000000000000, 0.000000000000000000 ) ) ;
#250 = CARTESIAN_POINT ( 'NONE',  ( 3.250000000000000444, 3.980102097228898231E-16, 165.0000000000000000 ) ) ;
#251 = CARTESIAN_POINT ( 'NONE',  ( 0.000000000000000000, 0.000000000000000000, 165.0000000000000000 ) ) ;
#252 = CLOSED_SHELL ( 'NONE', ( #189, #165, #199, #151, #110, #139, #11 ) ) ;
#253 = CC_DESIGN_PERSON_AND_ORGANIZATION_ASSIGNMENT ( #95, #149, ( #10 ) ) ;
#254 = DIRECTION ( 'NONE',  ( -0.000000000000000000, -0.000000000000000000, -1.000000000000000000 ) ) ;
#255 = PERSON_AND_ORGANIZATION_ROLE ( 'design_owner' ) ;
ENDSEC;
END-ISO-10303-21;
