ISO-10303-21;
HEADER;
FILE_DESCRIPTION (( 'STEP AP203' ),
    '1' );
FILE_NAME ('d6aa.STEP',
    '2022-07-07T18:01:10',
    ( '' ),
    ( '' ),
    'SwSTEP 2.0',
    'SolidWorks 2019',
    '' );
FILE_SCHEMA (( 'CONFIG_CONTROL_DESIGN' ));
ENDSEC;

DATA;
#1 = CC_DESIGN_PERSON_AND_ORGANIZATION_ASSIGNMENT ( #3, #70, ( #111 ) ) ;
#2 = AXIS2_PLACEMENT_3D ( 'NONE', #182, #96, #174 ) ;
#3 = PERSON_AND_ORGANIZATION ( #146, #143 ) ;
#4 = PRODUCT_DEFINITION ( 'NEZNÁMÝ', '', #111, #224 ) ;
#5 = EDGE_LOOP ( 'NONE', ( #97, #190, #115, #12 ) ) ;
#6 = CC_DESIGN_APPROVAL ( #164, ( #45 ) ) ;
#7 = ORIENTED_EDGE ( 'NONE', *, *, #232, .F. ) ;
#8 =( GEOMETRIC_REPRESENTATION_CONTEXT ( 3 ) GLOBAL_UNCERTAINTY_ASSIGNED_CONTEXT ( ( #72 ) ) GLOBAL_UNIT_ASSIGNED_CONTEXT ( ( #44, #248, #13 ) ) REPRESENTATION_CONTEXT ( 'NONE', 'WORKASPACE' ) );
#9 = AXIS2_PLACEMENT_3D ( 'NONE', #140, #121, #194 ) ;
#10 = EDGE_LOOP ( 'NONE', ( #152, #241, #226, #154 ) ) ;
#11 = CARTESIAN_POINT ( 'NONE',  ( 0.000000000000000000, 0.000000000000000000, 317.0000000000000000 ) ) ;
#12 = ORIENTED_EDGE ( 'NONE', *, *, #55, .T. ) ;
#13 =( NAMED_UNIT ( * ) SI_UNIT ( $, .STERADIAN. ) SOLID_ANGLE_UNIT ( ) );
#14 = CARTESIAN_POINT ( 'NONE',  ( 1.000000000000000000, 1.224646799147353207E-16, 317.0000000000000000 ) ) ;
#15 = APPLICATION_PROTOCOL_DEFINITION ( 'international standard', 'config_control_design', 1994, #31 ) ;
#16 = CARTESIAN_POINT ( 'NONE',  ( 2.000000000000000000, 2.449293598294706414E-16, 0.000000000000000000 ) ) ;
#17 = CIRCLE ( 'NONE', #197, 1.000000000000000000 ) ;
#18 = CC_DESIGN_PERSON_AND_ORGANIZATION_ASSIGNMENT ( #127, #204, ( #45 ) ) ;
#19 = CARTESIAN_POINT ( 'NONE',  ( -2.000000000000000000, 0.000000000000000000, 2.000000000000000000 ) ) ;
#20 = CARTESIAN_POINT ( 'NONE',  ( -2.000000000000000000, 0.000000000000000000, 2.000000000000000000 ) ) ;
#21 = DIRECTION ( 'NONE',  ( 0.000000000000000000, 0.000000000000000000, 1.000000000000000000 ) ) ;
#22 = LOCAL_TIME ( 20, 1, 10.00000000000000000, #215 ) ;
#23 = DATE_TIME_ROLE ( 'classification_date' ) ;
#24 = COORDINATED_UNIVERSAL_TIME_OFFSET ( 1, 0, .AHEAD. ) ;
#25 = PERSON_AND_ORGANIZATION_ROLE ( 'design_supplier' ) ;
#26 = VECTOR ( 'NONE', #84, 1000.000000000000000 ) ;
#27 = COORDINATED_UNIVERSAL_TIME_OFFSET ( 1, 0, .AHEAD. ) ;
#28 = ADVANCED_FACE ( 'NONE', ( #135 ), #192, .T. ) ;
#29 = ORIENTED_EDGE ( 'NONE', *, *, #86, .T. ) ;
#30 = EDGE_LOOP ( 'NONE', ( #172, #53 ) ) ;
#31 = APPLICATION_CONTEXT ( 'configuration controlled 3d designs of mechanical parts and assemblies' ) ;
#32 = VERTEX_POINT ( 'NONE', #211 ) ;
#33 = AXIS2_PLACEMENT_3D ( 'NONE', #161, #217, #126 ) ;
#34 = ADVANCED_FACE ( 'NONE', ( #229 ), #36, .T. ) ;
#35 = DIRECTION ( 'NONE',  ( 1.000000000000000000, 0.000000000000000000, 0.000000000000000000 ) ) ;
#36 = CYLINDRICAL_SURFACE ( 'NONE', #113, 1.000000000000000000 ) ;
#37 = MECHANICAL_CONTEXT ( 'NONE', #31, 'mechanical' ) ;
#38 = DIRECTION ( 'NONE',  ( 0.000000000000000000, 0.000000000000000000, 1.000000000000000000 ) ) ;
#40 = CARTESIAN_POINT ( 'NONE',  ( 2.000000000000000000, 2.449293598294706414E-16, 2.000000000000000000 ) ) ;
#39 = APPROVAL_PERSON_ORGANIZATION ( #203, #164, #166 ) ;
#41 = DIRECTION ( 'NONE',  ( 0.000000000000000000, 0.000000000000000000, 1.000000000000000000 ) ) ;
#42 = COORDINATED_UNIVERSAL_TIME_OFFSET ( 1, 0, .AHEAD. ) ;
#43 = DIRECTION ( 'NONE',  ( -0.000000000000000000, -0.000000000000000000, -1.000000000000000000 ) ) ;
#44 =( LENGTH_UNIT ( ) NAMED_UNIT ( * ) SI_UNIT ( .MILLI., .METRE. ) );
#45 = SECURITY_CLASSIFICATION ( '', '', #109 ) ;
#46 = EDGE_CURVE ( 'NONE', #153, #188, #69, .T. ) ;
#47 = AXIS2_PLACEMENT_3D ( 'NONE', #158, #104, #231 ) ;
#48 = APPROVAL_DATE_TIME ( #87, #202 ) ;
#49 = CC_DESIGN_DATE_AND_TIME_ASSIGNMENT ( #68, #23, ( #45 ) ) ;
#50 = AXIS2_PLACEMENT_3D ( 'NONE', #179, #214, #81 ) ;
#51 = EDGE_CURVE ( 'NONE', #175, #56, #129, .T. ) ;
#52 = CIRCLE ( 'NONE', #33, 2.000000000000000000 ) ;
#53 = ORIENTED_EDGE ( 'NONE', *, *, #156, .T. ) ;
#54 = ORIENTED_EDGE ( 'NONE', *, *, #51, .F. ) ;
#55 = EDGE_CURVE ( 'NONE', #188, #153, #250, .T. ) ;
#56 = VERTEX_POINT ( 'NONE', #176 ) ;
#57 = APPROVAL_PERSON_ORGANIZATION ( #139, #202, #123 ) ;
#58 = PLANE ( 'NONE',  #247 ) ;
#59 = DIRECTION ( 'NONE',  ( 1.000000000000000000, 0.000000000000000000, 0.000000000000000000 ) ) ;
#60 = DIRECTION ( 'NONE',  ( 1.000000000000000000, 0.000000000000000000, 0.000000000000000000 ) ) ;
#61 = DATE_TIME_ROLE ( 'creation_date' ) ;
#62 = DIRECTION ( 'NONE',  ( -1.000000000000000000, 0.000000000000000000, 0.000000000000000000 ) ) ;
#63 = LOCAL_TIME ( 20, 1, 10.00000000000000000, #221 ) ;
#64 = APPROVAL_STATUS ( 'not_yet_approved' ) ;
#65 = DIRECTION ( 'NONE',  ( 1.000000000000000000, 0.000000000000000000, -0.000000000000000000 ) ) ;
#66 = PERSON_AND_ORGANIZATION ( #146, #143 ) ;
#67 = DIRECTION ( 'NONE',  ( 1.000000000000000000, 0.000000000000000000, -0.000000000000000000 ) ) ;
#68 = DATE_AND_TIME ( #165, #201 ) ;
#69 = CIRCLE ( 'NONE', #180, 1.000000000000000000 ) ;
#70 = PERSON_AND_ORGANIZATION_ROLE ( 'creator' ) ;
#71 = APPROVAL ( #64, 'NEURÈENÝ' ) ;
#72 = UNCERTAINTY_MEASURE_WITH_UNIT (LENGTH_MEASURE( 1.000000000000000082E-05 ), #44, 'distance_accuracy_value', 'NONE');
#73 = EDGE_LOOP ( 'NONE', ( #131, #29, #76, #117 ) ) ;
#74 = ORIENTED_EDGE ( 'NONE', *, *, #93, .T. ) ;
#75 = MANIFOLD_SOLID_BREP ( 'Pøidat vysunutím3', #171 ) ;
#76 = ORIENTED_EDGE ( 'NONE', *, *, #46, .T. ) ;
#77 = FACE_BOUND ( 'NONE', #94, .T. ) ;
#78 = DIRECTION ( 'NONE',  ( 0.000000000000000000, 0.000000000000000000, 1.000000000000000000 ) ) ;
#79 = FACE_OUTER_BOUND ( 'NONE', #240, .T. ) ;
#80 = DIRECTION ( 'NONE',  ( -0.000000000000000000, -0.000000000000000000, -1.000000000000000000 ) ) ;
#81 = DIRECTION ( 'NONE',  ( 1.000000000000000000, 0.000000000000000000, 0.000000000000000000 ) ) ;
#82 = FACE_OUTER_BOUND ( 'NONE', #73, .T. ) ;
#83 = LINE ( 'NONE', #162, #90 ) ;
#84 = DIRECTION ( 'NONE',  ( -0.000000000000000000, -0.000000000000000000, -1.000000000000000000 ) ) ;
#85 = DIRECTION ( 'NONE',  ( -1.000000000000000000, 0.000000000000000000, 0.000000000000000000 ) ) ;
#86 = EDGE_CURVE ( 'NONE', #207, #153, #253, .T. ) ;
#87 = DATE_AND_TIME ( #148, #128 ) ;
#88 = LOCAL_TIME ( 20, 1, 10.00000000000000000, #42 ) ;
#89 = APPROVAL_STATUS ( 'not_yet_approved' ) ;
#90 = VECTOR ( 'NONE', #178, 1000.000000000000000 ) ;
#91 = ORIENTED_EDGE ( 'NONE', *, *, #46, .F. ) ;
#92 = ORIENTED_EDGE ( 'NONE', *, *, #191, .F. ) ;
#93 = EDGE_CURVE ( 'NONE', #207, #114, #17, .T. ) ;
#94 = EDGE_LOOP ( 'NONE', ( #168, #91 ) ) ;
#95 = AXIS2_PLACEMENT_3D ( 'NONE', #244, #78, #157 ) ;
#96 = DIRECTION ( 'NONE',  ( 0.000000000000000000, 0.000000000000000000, 1.000000000000000000 ) ) ;
#97 = ORIENTED_EDGE ( 'NONE', *, *, #86, .F. ) ;
#98 = DIRECTION ( 'NONE',  ( 0.000000000000000000, 0.000000000000000000, 1.000000000000000000 ) ) ;
#99 = DIRECTION ( 'NONE',  ( -0.000000000000000000, -0.000000000000000000, -1.000000000000000000 ) ) ;
#100 = CYLINDRICAL_SURFACE ( 'NONE', #216, 2.000000000000000000 ) ;
#101 = CARTESIAN_POINT ( 'NONE',  ( 1.000000000000000000, 1.224646799147353207E-16, 2.000000000000000000 ) ) ;
#102 = ADVANCED_FACE ( 'NONE', ( #79 ), #181, .F. ) ;
#103 = AXIS2_PLACEMENT_3D ( 'NONE', #196, #98, #35 ) ;
#104 = DIRECTION ( 'NONE',  ( 0.000000000000000000, 0.000000000000000000, 1.000000000000000000 ) ) ;
#105 = CARTESIAN_POINT ( 'NONE',  ( 1.000000000000000000, 1.224646799147353207E-16, 317.0000000000000000 ) ) ;
#106 = APPROVAL_ROLE ( '' ) ;
#107 = APPROVAL_PERSON_ORGANIZATION ( #66, #71, #106 ) ;
#108 = APPROVAL_DATE_TIME ( #184, #164 ) ;
#109 = SECURITY_CLASSIFICATION_LEVEL ( 'unclassified' ) ;
#110 = CIRCLE ( 'NONE', #50, 2.000000000000000000 ) ;
#111 = PRODUCT_DEFINITION_FORMATION_WITH_SPECIFIED_SOURCE ( 'LIBOVOLNÝ', '', #163, .NOT_KNOWN. ) ;
#112 = CIRCLE ( 'NONE', #2, 2.000000000000000000 ) ;
#113 = AXIS2_PLACEMENT_3D ( 'NONE', #119, #99, #177 ) ;
#114 = VERTEX_POINT ( 'NONE', #236 ) ;
#115 = ORIENTED_EDGE ( 'NONE', *, *, #238, .T. ) ;
#116 = AXIS2_PLACEMENT_3D ( 'NONE', #220, #21, #59 ) ;
#117 = ORIENTED_EDGE ( 'NONE', *, *, #238, .F. ) ;
#118 = DIRECTION ( 'NONE',  ( 1.000000000000000000, 0.000000000000000000, 0.000000000000000000 ) ) ;
#119 = CARTESIAN_POINT ( 'NONE',  ( 0.000000000000000000, 0.000000000000000000, 317.0000000000000000 ) ) ;
#120 = PRODUCT_RELATED_PRODUCT_CATEGORY ( 'detail', '', ( #163 ) ) ;
#121 = DIRECTION ( 'NONE',  ( -0.000000000000000000, -0.000000000000000000, -1.000000000000000000 ) ) ;
#122 = CC_DESIGN_APPROVAL ( #202, ( #111 ) ) ;
#123 = APPROVAL_ROLE ( '' ) ;
#124 = CARTESIAN_POINT ( 'NONE',  ( -1.000000000000000000, 0.000000000000000000, 2.000000000000000000 ) ) ;
#125 = DATE_AND_TIME ( #145, #88 ) ;
#126 = DIRECTION ( 'NONE',  ( 1.000000000000000000, 0.000000000000000000, 0.000000000000000000 ) ) ;
#127 = PERSON_AND_ORGANIZATION ( #146, #143 ) ;
#128 = LOCAL_TIME ( 20, 1, 10.00000000000000000, #27 ) ;
#129 = CIRCLE ( 'NONE', #47, 2.000000000000000000 ) ;
#130 = APPLICATION_CONTEXT ( 'configuration controlled 3d designs of mechanical parts and assemblies' ) ;
#131 = ORIENTED_EDGE ( 'NONE', *, *, #93, .F. ) ;
#132 = ORIENTED_EDGE ( 'NONE', *, *, #191, .T. ) ;
#133 = EDGE_LOOP ( 'NONE', ( #170, #74 ) ) ;
#134 = CARTESIAN_POINT ( 'NONE',  ( 0.000000000000000000, 0.000000000000000000, 2.000000000000000000 ) ) ;
#135 = FACE_OUTER_BOUND ( 'NONE', #133, .T. ) ;
#136 = ADVANCED_FACE ( 'NONE', ( #251 ), #193, .T. ) ;
#137 = DIRECTION ( 'NONE',  ( -0.000000000000000000, -0.000000000000000000, -1.000000000000000000 ) ) ;
#138 = DIRECTION ( 'NONE',  ( -0.000000000000000000, -0.000000000000000000, -1.000000000000000000 ) ) ;
#139 = PERSON_AND_ORGANIZATION ( #146, #143 ) ;
#140 = CARTESIAN_POINT ( 'NONE',  ( 0.000000000000000000, 0.000000000000000000, 2.000000000000000000 ) ) ;
#141 = CALENDAR_DATE ( 2022, 7, 7 ) ;
#142 = DIRECTION ( 'NONE',  ( 0.000000000000000000, 0.000000000000000000, 1.000000000000000000 ) ) ;
#143 = ORGANIZATION ( 'NEURÈENÝ', 'NEURÈENÝ', '' ) ;
#144 = PERSON_AND_ORGANIZATION_ROLE ( 'design_owner' ) ;
#145 = CALENDAR_DATE ( 2022, 7, 7 ) ;
#146 = PERSON ( 'NEURÈENÝ', 'NEURÈENÝ', 'NEURÈENÝ', ('NEURÈENÝ'), ('NEURÈENÝ'), ('NEURÈENÝ') ) ;
#147 = AXIS2_PLACEMENT_3D ( 'NONE', #11, #43, #62 ) ;
#148 = CALENDAR_DATE ( 2022, 7, 7 ) ;
#149 = VECTOR ( 'NONE', #80, 1000.000000000000000 ) ;
#150 = VECTOR ( 'NONE', #138, 1000.000000000000000 ) ;
#151 = PERSON_AND_ORGANIZATION ( #146, #143 ) ;
#152 = ORIENTED_EDGE ( 'NONE', *, *, #156, .F. ) ;
#153 = VERTEX_POINT ( 'NONE', #101 ) ;
#154 = ORIENTED_EDGE ( 'NONE', *, *, #205, .F. ) ;
#155 = FACE_OUTER_BOUND ( 'NONE', #30, .T. ) ;
#156 = EDGE_CURVE ( 'NONE', #32, #227, #110, .T. ) ;
#157 = DIRECTION ( 'NONE',  ( 1.000000000000000000, 0.000000000000000000, -0.000000000000000000 ) ) ;
#158 = CARTESIAN_POINT ( 'NONE',  ( 0.000000000000000000, 0.000000000000000000, 0.000000000000000000 ) ) ;
#159 = DATE_AND_TIME ( #141, #22 ) ;
#160 = CARTESIAN_POINT ( 'NONE',  ( 0.000000000000000000, 0.000000000000000000, 317.0000000000000000 ) ) ;
#161 = CARTESIAN_POINT ( 'NONE',  ( 0.000000000000000000, 0.000000000000000000, 0.000000000000000000 ) ) ;
#162 = CARTESIAN_POINT ( 'NONE',  ( -1.000000000000000000, 0.000000000000000000, 317.0000000000000000 ) ) ;
#163 = PRODUCT ( 'd6aa', 'd6aa', '', ( #37 ) ) ;
#164 = APPROVAL ( #89, 'NEURÈENÝ' ) ;
#165 = CALENDAR_DATE ( 2022, 7, 7 ) ;
#166 = APPROVAL_ROLE ( '' ) ;
#167 = CC_DESIGN_APPROVAL ( #71, ( #4 ) ) ;
#168 = ORIENTED_EDGE ( 'NONE', *, *, #55, .F. ) ;
#169 = EDGE_CURVE ( 'NONE', #114, #207, #255, .T. ) ;
#170 = ORIENTED_EDGE ( 'NONE', *, *, #169, .T. ) ;
#171 = CLOSED_SHELL ( 'NONE', ( #187, #136, #252, #223, #102, #34, #28 ) ) ;
#172 = ORIENTED_EDGE ( 'NONE', *, *, #219, .T. ) ;
#173 = CC_DESIGN_PERSON_AND_ORGANIZATION_ASSIGNMENT ( #151, #25, ( #111 ) ) ;
#174 = DIRECTION ( 'NONE',  ( 1.000000000000000000, 0.000000000000000000, 0.000000000000000000 ) ) ;
#175 = VERTEX_POINT ( 'NONE', #16 ) ;
#176 = CARTESIAN_POINT ( 'NONE',  ( -2.000000000000000000, 0.000000000000000000, 0.000000000000000000 ) ) ;
#177 = DIRECTION ( 'NONE',  ( -1.000000000000000000, 0.000000000000000000, 0.000000000000000000 ) ) ;
#178 = DIRECTION ( 'NONE',  ( -0.000000000000000000, -0.000000000000000000, -1.000000000000000000 ) ) ;
#179 = CARTESIAN_POINT ( 'NONE',  ( 0.000000000000000000, 0.000000000000000000, 2.000000000000000000 ) ) ;
#180 = AXIS2_PLACEMENT_3D ( 'NONE', #228, #38, #118 ) ;
#181 = PLANE ( 'NONE',  #222 ) ;
#182 = CARTESIAN_POINT ( 'NONE',  ( 0.000000000000000000, 0.000000000000000000, 2.000000000000000000 ) ) ;
#183 = APPROVAL_DATE_TIME ( #159, #71 ) ;
#184 = DATE_AND_TIME ( #237, #63 ) ;
#185 = CC_DESIGN_SECURITY_CLASSIFICATION ( #45, ( #111 ) ) ;
#186 = SHAPE_DEFINITION_REPRESENTATION ( #243, #208 ) ;
#187 = ADVANCED_FACE ( 'NONE', ( #82 ), #242, .T. ) ;
#188 = VERTEX_POINT ( 'NONE', #124 ) ;
#189 = ORIENTED_EDGE ( 'NONE', *, *, #219, .F. ) ;
#190 = ORIENTED_EDGE ( 'NONE', *, *, #169, .F. ) ;
#191 = EDGE_CURVE ( 'NONE', #56, #175, #52, .T. ) ;
#192 = PLANE ( 'NONE',  #95 ) ;
#193 = CYLINDRICAL_SURFACE ( 'NONE', #9, 2.000000000000000000 ) ;
#194 = DIRECTION ( 'NONE',  ( -1.000000000000000000, 0.000000000000000000, 0.000000000000000000 ) ) ;
#195 = AXIS2_PLACEMENT_3D ( 'NONE', #160, #142, #234 ) ;
#196 = CARTESIAN_POINT ( 'NONE',  ( 0.000000000000000000, 0.000000000000000000, 2.000000000000000000 ) ) ;
#197 = AXIS2_PLACEMENT_3D ( 'NONE', #245, #41, #60 ) ;
#198 = APPROVAL_STATUS ( 'not_yet_approved' ) ;
#199 = LINE ( 'NONE', #20, #26 ) ;
#200 = LINE ( 'NONE', #40, #149 ) ;
#201 = LOCAL_TIME ( 20, 1, 10.00000000000000000, #24 ) ;
#202 = APPROVAL ( #198, 'NEURÈENÝ' ) ;
#203 = PERSON_AND_ORGANIZATION ( #146, #143 ) ;
#204 = PERSON_AND_ORGANIZATION_ROLE ( 'classification_officer' ) ;
#205 = EDGE_CURVE ( 'NONE', #227, #56, #199, .T. ) ;
#206 = CC_DESIGN_DATE_AND_TIME_ASSIGNMENT ( #125, #61, ( #4 ) ) ;
#207 = VERTEX_POINT ( 'NONE', #105 ) ;
#208 = ADVANCED_BREP_SHAPE_REPRESENTATION ( 'd6aa', ( #75, #116 ), #8 ) ;
#209 = EDGE_LOOP ( 'NONE', ( #7, #189, #225, #132 ) ) ;
#210 = DIRECTION ( 'NONE',  ( 0.000000000000000000, 0.000000000000000000, 1.000000000000000000 ) ) ;
#211 = CARTESIAN_POINT ( 'NONE',  ( 2.000000000000000000, 2.449293598294706414E-16, 2.000000000000000000 ) ) ;
#212 = DIRECTION ( 'NONE',  ( 0.000000000000000000, 0.000000000000000000, 1.000000000000000000 ) ) ;
#213 = PERSON_AND_ORGANIZATION ( #146, #143 ) ;
#214 = DIRECTION ( 'NONE',  ( 0.000000000000000000, 0.000000000000000000, 1.000000000000000000 ) ) ;
#215 = COORDINATED_UNIVERSAL_TIME_OFFSET ( 1, 0, .AHEAD. ) ;
#216 = AXIS2_PLACEMENT_3D ( 'NONE', #254, #137, #85 ) ;
#217 = DIRECTION ( 'NONE',  ( 0.000000000000000000, 0.000000000000000000, 1.000000000000000000 ) ) ;
#218 = PERSON_AND_ORGANIZATION_ROLE ( 'creator' ) ;
#219 = EDGE_CURVE ( 'NONE', #227, #32, #112, .T. ) ;
#220 = CARTESIAN_POINT ( 'NONE',  ( 0.000000000000000000, 0.000000000000000000, 0.000000000000000000 ) ) ;
#221 = COORDINATED_UNIVERSAL_TIME_OFFSET ( 1, 0, .AHEAD. ) ;
#222 = AXIS2_PLACEMENT_3D ( 'NONE', #249, #212, #65 ) ;
#223 = ADVANCED_FACE ( 'NONE', ( #77, #155 ), #58, .T. ) ;
#224 = DESIGN_CONTEXT ( 'detailed design', #130, 'design' ) ;
#225 = ORIENTED_EDGE ( 'NONE', *, *, #205, .T. ) ;
#226 = ORIENTED_EDGE ( 'NONE', *, *, #51, .T. ) ;
#227 = VERTEX_POINT ( 'NONE', #19 ) ;
#228 = CARTESIAN_POINT ( 'NONE',  ( 0.000000000000000000, 0.000000000000000000, 2.000000000000000000 ) ) ;
#229 = FACE_OUTER_BOUND ( 'NONE', #5, .T. ) ;
#230 = FACE_OUTER_BOUND ( 'NONE', #209, .T. ) ;
#231 = DIRECTION ( 'NONE',  ( 1.000000000000000000, 0.000000000000000000, 0.000000000000000000 ) ) ;
#232 = EDGE_CURVE ( 'NONE', #32, #175, #200, .T. ) ;
#233 = PERSON_AND_ORGANIZATION ( #146, #143 ) ;
#234 = DIRECTION ( 'NONE',  ( 1.000000000000000000, 0.000000000000000000, 0.000000000000000000 ) ) ;
#235 = APPLICATION_PROTOCOL_DEFINITION ( 'international standard', 'config_control_design', 1994, #130 ) ;
#236 = CARTESIAN_POINT ( 'NONE',  ( -1.000000000000000000, 0.000000000000000000, 317.0000000000000000 ) ) ;
#237 = CALENDAR_DATE ( 2022, 7, 7 ) ;
#238 = EDGE_CURVE ( 'NONE', #114, #188, #83, .T. ) ;
#239 = CC_DESIGN_PERSON_AND_ORGANIZATION_ASSIGNMENT ( #213, #144, ( #163 ) ) ;
#240 = EDGE_LOOP ( 'NONE', ( #92, #54 ) ) ;
#241 = ORIENTED_EDGE ( 'NONE', *, *, #232, .T. ) ;
#242 = CYLINDRICAL_SURFACE ( 'NONE', #147, 1.000000000000000000 ) ;
#243 = PRODUCT_DEFINITION_SHAPE ( 'NONE', 'NONE',  #4 ) ;
#244 = CARTESIAN_POINT ( 'NONE',  ( 0.000000000000000000, 0.000000000000000000, 317.0000000000000000 ) ) ;
#245 = CARTESIAN_POINT ( 'NONE',  ( 0.000000000000000000, 0.000000000000000000, 317.0000000000000000 ) ) ;
#246 = CC_DESIGN_PERSON_AND_ORGANIZATION_ASSIGNMENT ( #233, #218, ( #4 ) ) ;
#247 = AXIS2_PLACEMENT_3D ( 'NONE', #134, #210, #67 ) ;
#248 =( NAMED_UNIT ( * ) PLANE_ANGLE_UNIT ( ) SI_UNIT ( $, .RADIAN. ) );
#249 = CARTESIAN_POINT ( 'NONE',  ( 0.000000000000000000, 0.000000000000000000, 0.000000000000000000 ) ) ;
#250 = CIRCLE ( 'NONE', #103, 1.000000000000000000 ) ;
#251 = FACE_OUTER_BOUND ( 'NONE', #10, .T. ) ;
#252 = ADVANCED_FACE ( 'NONE', ( #230 ), #100, .T. ) ;
#253 = LINE ( 'NONE', #14, #150 ) ;
#254 = CARTESIAN_POINT ( 'NONE',  ( 0.000000000000000000, 0.000000000000000000, 2.000000000000000000 ) ) ;
#255 = CIRCLE ( 'NONE', #195, 1.000000000000000000 ) ;
ENDSEC;
END-ISO-10303-21;
