ISO-10303-21;
HEADER;
FILE_DESCRIPTION (( 'STEP AP203' ),
    '1' );
FILE_NAME ('eed7.STEP',
    '2022-07-07T17:38:38',
    ( '' ),
    ( '' ),
    'SwSTEP 2.0',
    'SolidWorks 2019',
    '' );
FILE_SCHEMA (( 'CONFIG_CONTROL_DESIGN' ));
ENDSEC;

DATA;
#1 = DIRECTION ( 'NONE',  ( 0.000000000000000000, 0.000000000000000000, 1.000000000000000000 ) ) ;
#2 = PLANE ( 'NONE',  #109 ) ;
#3 = ORIENTED_EDGE ( 'NONE', *, *, #214, .T. ) ;
#4 = APPROVAL_DATE_TIME ( #153, #240 ) ;
#5 = CIRCLE ( 'NONE', #162, 3.100000000000000089 ) ;
#6 = PERSON_AND_ORGANIZATION ( #101, #76 ) ;
#7 = COORDINATED_UNIVERSAL_TIME_OFFSET ( 1, 0, .AHEAD. ) ;
#8 = PERSON_AND_ORGANIZATION ( #101, #76 ) ;
#9 = VECTOR ( 'NONE', #56, 1000.000000000000000 ) ;
#10 = DIRECTION ( 'NONE',  ( -1.000000000000000000, 0.000000000000000000, 0.000000000000000000 ) ) ;
#11 = CARTESIAN_POINT ( 'NONE',  ( 0.000000000000000000, 0.000000000000000000, 505.0000000000000000 ) ) ;
#12 = CARTESIAN_POINT ( 'NONE',  ( 0.000000000000000000, 0.000000000000000000, 505.0000000000000000 ) ) ;
#13 = DIRECTION ( 'NONE',  ( 0.000000000000000000, 0.000000000000000000, 1.000000000000000000 ) ) ;
#14 = FACE_BOUND ( 'NONE', #130, .T. ) ;
#15 = ADVANCED_FACE ( 'NONE', ( #14, #208 ), #54, .T. ) ;
#16 = VERTEX_POINT ( 'NONE', #150 ) ;
#17 = CIRCLE ( 'NONE', #24, 3.100000000000000089 ) ;
#18 = DIRECTION ( 'NONE',  ( -0.000000000000000000, -0.000000000000000000, -1.000000000000000000 ) ) ;
#19 = ORIENTED_EDGE ( 'NONE', *, *, #144, .F. ) ;
#20 = CIRCLE ( 'NONE', #157, 6.000000000000000888 ) ;
#21 = FACE_OUTER_BOUND ( 'NONE', #128, .T. ) ;
#22 = ORIENTED_EDGE ( 'NONE', *, *, #126, .F. ) ;
#23 = DIRECTION ( 'NONE',  ( 0.000000000000000000, 0.000000000000000000, 1.000000000000000000 ) ) ;
#24 = AXIS2_PLACEMENT_3D ( 'NONE', #62, #198, #158 ) ;
#25 = COORDINATED_UNIVERSAL_TIME_OFFSET ( 1, 0, .AHEAD. ) ;
#26 = PERSON_AND_ORGANIZATION_ROLE ( 'creator' ) ;
#27 = CC_DESIGN_PERSON_AND_ORGANIZATION_ASSIGNMENT ( #80, #77, ( #124 ) ) ;
#28 = VECTOR ( 'NONE', #120, 1000.000000000000000 ) ;
#29 = AXIS2_PLACEMENT_3D ( 'NONE', #182, #13, #98 ) ;
#30 = DESIGN_CONTEXT ( 'detailed design', #37, 'design' ) ;
#31 = DIRECTION ( 'NONE',  ( 1.000000000000000000, 0.000000000000000000, 0.000000000000000000 ) ) ;
#32 = DIRECTION ( 'NONE',  ( 0.000000000000000000, 0.000000000000000000, 1.000000000000000000 ) ) ;
#33 = DIRECTION ( 'NONE',  ( 0.000000000000000000, 0.000000000000000000, 1.000000000000000000 ) ) ;
#34 = VERTEX_POINT ( 'NONE', #252 ) ;
#35 = ADVANCED_FACE ( 'NONE', ( #204 ), #210, .T. ) ;
#36 = ORIENTED_EDGE ( 'NONE', *, *, #202, .T. ) ;
#37 = APPLICATION_CONTEXT ( 'configuration controlled 3d designs of mechanical parts and assemblies' ) ;
#38 = ORIENTED_EDGE ( 'NONE', *, *, #224, .T. ) ;
#39 = LOCAL_TIME ( 19, 38, 38.00000000000000000, #7 ) ;
#40 = ORIENTED_EDGE ( 'NONE', *, *, #178, .F. ) ;
#41 = SECURITY_CLASSIFICATION_LEVEL ( 'unclassified' ) ;
#42 = APPLICATION_PROTOCOL_DEFINITION ( 'international standard', 'config_control_design', 1994, #69 ) ;
#43 = CALENDAR_DATE ( 2022, 7, 7 ) ;
#44 = CC_DESIGN_PERSON_AND_ORGANIZATION_ASSIGNMENT ( #151, #81, ( #154 ) ) ;
#45 = DIRECTION ( 'NONE',  ( -1.000000000000000000, 0.000000000000000000, 0.000000000000000000 ) ) ;
#46 = VECTOR ( 'NONE', #102, 1000.000000000000000 ) ;
#47 = LINE ( 'NONE', #121, #68 ) ;
#48 = DIRECTION ( 'NONE',  ( 1.000000000000000000, 0.000000000000000000, -0.000000000000000000 ) ) ;
#49 = ORIENTED_EDGE ( 'NONE', *, *, #144, .T. ) ;
#50 = MANIFOLD_SOLID_BREP ( 'Pøidat vysunutím3', #169 ) ;
#51 = CARTESIAN_POINT ( 'NONE',  ( -6.000000000000000888, 0.000000000000000000, 0.000000000000000000 ) ) ;
#52 = LINE ( 'NONE', #237, #9 ) ;
#53 = ORIENTED_EDGE ( 'NONE', *, *, #214, .F. ) ;
#54 = PLANE ( 'NONE',  #183 ) ;
#55 = APPROVAL_PERSON_ORGANIZATION ( #176, #240, #136 ) ;
#56 = DIRECTION ( 'NONE',  ( -0.000000000000000000, -0.000000000000000000, -1.000000000000000000 ) ) ;
#57 = CIRCLE ( 'NONE', #103, 3.100000000000000089 ) ;
#58 = MECHANICAL_CONTEXT ( 'NONE', #69, 'mechanical' ) ;
#59 = APPROVAL_ROLE ( '' ) ;
#60 = PERSON_AND_ORGANIZATION ( #101, #76 ) ;
#61 = APPROVAL ( #195, 'NEURÈENÝ' ) ;
#62 = CARTESIAN_POINT ( 'NONE',  ( 0.000000000000000000, 0.000000000000000000, 5.000000000000000000 ) ) ;
#63 = AXIS2_PLACEMENT_3D ( 'NONE', #248, #249, #45 ) ;
#64 = ADVANCED_FACE ( 'NONE', ( #89 ), #168, .T. ) ;
#65 = LINE ( 'NONE', #140, #28 ) ;
#66 = DIRECTION ( 'NONE',  ( 1.000000000000000000, 0.000000000000000000, 0.000000000000000000 ) ) ;
#67 = ORIENTED_EDGE ( 'NONE', *, *, #224, .F. ) ;
#68 = VECTOR ( 'NONE', #201, 1000.000000000000000 ) ;
#69 = APPLICATION_CONTEXT ( 'configuration controlled 3d designs of mechanical parts and assemblies' ) ;
#70 = CARTESIAN_POINT ( 'NONE',  ( -6.000000000000000888, 0.000000000000000000, 5.000000000000000000 ) ) ;
#71 = EDGE_LOOP ( 'NONE', ( #67, #234, #209, #236 ) ) ;
#72 = EDGE_LOOP ( 'NONE', ( #189, #171 ) ) ;
#73 = DIRECTION ( 'NONE',  ( 0.000000000000000000, 0.000000000000000000, 1.000000000000000000 ) ) ;
#74 = ADVANCED_BREP_SHAPE_REPRESENTATION ( 'eed7', ( #50, #90 ), #146 ) ;
#75 = CC_DESIGN_PERSON_AND_ORGANIZATION_ASSIGNMENT ( #135, #26, ( #250 ) ) ;
#76 = ORGANIZATION ( 'NEURÈENÝ', 'NEURÈENÝ', '' ) ;
#77 = PERSON_AND_ORGANIZATION_ROLE ( 'creator' ) ;
#78 = ADVANCED_FACE ( 'NONE', ( #21 ), #230, .T. ) ;
#79 = CIRCLE ( 'NONE', #142, 6.000000000000000888 ) ;
#80 = PERSON_AND_ORGANIZATION ( #101, #76 ) ;
#81 = PERSON_AND_ORGANIZATION_ROLE ( 'classification_officer' ) ;
#82 = LOCAL_TIME ( 19, 38, 38.00000000000000000, #97 ) ;
#83 = APPROVAL_STATUS ( 'not_yet_approved' ) ;
#84 = CC_DESIGN_SECURITY_CLASSIFICATION ( #154, ( #124 ) ) ;
#85 = DIRECTION ( 'NONE',  ( 1.000000000000000000, 0.000000000000000000, 0.000000000000000000 ) ) ;
#86 = FACE_OUTER_BOUND ( 'NONE', #123, .T. ) ;
#87 = CC_DESIGN_APPROVAL ( #61, ( #154 ) ) ;
#88 = DIRECTION ( 'NONE',  ( 1.000000000000000000, 0.000000000000000000, -0.000000000000000000 ) ) ;
#89 = FACE_OUTER_BOUND ( 'NONE', #255, .T. ) ;
#90 = AXIS2_PLACEMENT_3D ( 'NONE', #215, #23, #212 ) ;
#91 = EDGE_CURVE ( 'NONE', #147, #16, #167, .T. ) ;
#92 = DIRECTION ( 'NONE',  ( -1.000000000000000000, 0.000000000000000000, 0.000000000000000000 ) ) ;
#93 = EDGE_LOOP ( 'NONE', ( #49, #131 ) ) ;
#94 = APPROVAL_ROLE ( '' ) ;
#95 = CARTESIAN_POINT ( 'NONE',  ( 0.000000000000000000, 0.000000000000000000, 5.000000000000000000 ) ) ;
#96 = DATE_AND_TIME ( #177, #39 ) ;
#97 = COORDINATED_UNIVERSAL_TIME_OFFSET ( 1, 0, .AHEAD. ) ;
#98 = DIRECTION ( 'NONE',  ( 1.000000000000000000, 0.000000000000000000, 0.000000000000000000 ) ) ;
#99 = CARTESIAN_POINT ( 'NONE',  ( 0.000000000000000000, 0.000000000000000000, 505.0000000000000000 ) ) ;
#100 = CC_DESIGN_DATE_AND_TIME_ASSIGNMENT ( #241, #242, ( #154 ) ) ;
#101 = PERSON ( 'NEURÈENÝ', 'NEURÈENÝ', 'NEURÈENÝ', ('NEURÈENÝ'), ('NEURÈENÝ'), ('NEURÈENÝ') ) ;
#102 = DIRECTION ( 'NONE',  ( -0.000000000000000000, -0.000000000000000000, -1.000000000000000000 ) ) ;
#103 = AXIS2_PLACEMENT_3D ( 'NONE', #99, #199, #85 ) ;
#104 = VERTEX_POINT ( 'NONE', #51 ) ;
#105 = EDGE_CURVE ( 'NONE', #16, #104, #20, .T. ) ;
#106 = ORIENTED_EDGE ( 'NONE', *, *, #91, .T. ) ;
#107 = CARTESIAN_POINT ( 'NONE',  ( 0.000000000000000000, 0.000000000000000000, 5.000000000000000000 ) ) ;
#108 = APPROVAL ( #172, 'NEURÈENÝ' ) ;
#109 = AXIS2_PLACEMENT_3D ( 'NONE', #143, #73, #232 ) ;
#110 = VERTEX_POINT ( 'NONE', #70 ) ;
#111 = PERSON_AND_ORGANIZATION ( #101, #76 ) ;
#112 = CC_DESIGN_DATE_AND_TIME_ASSIGNMENT ( #96, #191, ( #250 ) ) ;
#113 = APPLICATION_PROTOCOL_DEFINITION ( 'international standard', 'config_control_design', 1994, #37 ) ;
#114 = CARTESIAN_POINT ( 'NONE',  ( 6.000000000000000888, 7.347880794884120722E-16, 5.000000000000000000 ) ) ;
#115 = AXIS2_PLACEMENT_3D ( 'NONE', #221, #141, #160 ) ;
#116 = DATE_AND_TIME ( #175, #82 ) ;
#117 = CARTESIAN_POINT ( 'NONE',  ( 3.100000000000000089, 3.796405077356794918E-16, 5.000000000000000000 ) ) ;
#118 = AXIS2_PLACEMENT_3D ( 'NONE', #185, #164, #188 ) ;
#119 = AXIS2_PLACEMENT_3D ( 'NONE', #11, #139, #10 ) ;
#120 = DIRECTION ( 'NONE',  ( -0.000000000000000000, -0.000000000000000000, -1.000000000000000000 ) ) ;
#121 = CARTESIAN_POINT ( 'NONE',  ( 3.100000000000000089, 3.796405077356794918E-16, 505.0000000000000000 ) ) ;
#122 = ADVANCED_FACE ( 'NONE', ( #148 ), #2, .F. ) ;
#123 = EDGE_LOOP ( 'NONE', ( #228, #38, #231, #22 ) ) ;
#124 = PRODUCT_DEFINITION_FORMATION_WITH_SPECIFIED_SOURCE ( 'LIBOVOLNÝ', '', #155, .NOT_KNOWN. ) ;
#125 = CARTESIAN_POINT ( 'NONE',  ( 0.000000000000000000, 0.000000000000000000, 0.000000000000000000 ) ) ;
#126 = EDGE_CURVE ( 'NONE', #127, #34, #52, .T. ) ;
#127 = VERTEX_POINT ( 'NONE', #133 ) ;
#128 = EDGE_LOOP ( 'NONE', ( #205, #36 ) ) ;
#129 = PRODUCT_RELATED_PRODUCT_CATEGORY ( 'detail', '', ( #155 ) ) ;
#130 = EDGE_LOOP ( 'NONE', ( #238, #186 ) ) ;
#131 = ORIENTED_EDGE ( 'NONE', *, *, #178, .T. ) ;
#132 = LOCAL_TIME ( 19, 38, 38.00000000000000000, #152 ) ;
#133 = CARTESIAN_POINT ( 'NONE',  ( -3.100000000000000089, 0.000000000000000000, 505.0000000000000000 ) ) ;
#134 = APPROVAL_DATE_TIME ( #116, #108 ) ;
#135 = PERSON_AND_ORGANIZATION ( #101, #76 ) ;
#136 = APPROVAL_ROLE ( '' ) ;
#137 = DATE_AND_TIME ( #43, #219 ) ;
#138 =( NAMED_UNIT ( * ) PLANE_ANGLE_UNIT ( ) SI_UNIT ( $, .RADIAN. ) );
#139 = DIRECTION ( 'NONE',  ( -0.000000000000000000, -0.000000000000000000, -1.000000000000000000 ) ) ;
#140 = CARTESIAN_POINT ( 'NONE',  ( -6.000000000000000888, 0.000000000000000000, 5.000000000000000000 ) ) ;
#141 = DIRECTION ( 'NONE',  ( 0.000000000000000000, 0.000000000000000000, 1.000000000000000000 ) ) ;
#142 = AXIS2_PLACEMENT_3D ( 'NONE', #95, #213, #174 ) ;
#143 = CARTESIAN_POINT ( 'NONE',  ( 0.000000000000000000, 0.000000000000000000, 0.000000000000000000 ) ) ;
#144 = EDGE_CURVE ( 'NONE', #110, #147, #79, .T. ) ;
#145 = DIRECTION ( 'NONE',  ( 0.000000000000000000, 0.000000000000000000, 1.000000000000000000 ) ) ;
#146 =( GEOMETRIC_REPRESENTATION_CONTEXT ( 3 ) GLOBAL_UNCERTAINTY_ASSIGNED_CONTEXT ( ( #200 ) ) GLOBAL_UNIT_ASSIGNED_CONTEXT ( ( #179, #138, #218 ) ) REPRESENTATION_CONTEXT ( 'NONE', 'WORKASPACE' ) );
#147 = VERTEX_POINT ( 'NONE', #114 ) ;
#148 = FACE_OUTER_BOUND ( 'NONE', #72, .T. ) ;
#149 = EDGE_LOOP ( 'NONE', ( #40, #106, #211, #53 ) ) ;
#150 = CARTESIAN_POINT ( 'NONE',  ( 6.000000000000000888, 7.347880794884120722E-16, 0.000000000000000000 ) ) ;
#151 = PERSON_AND_ORGANIZATION ( #101, #76 ) ;
#152 = COORDINATED_UNIVERSAL_TIME_OFFSET ( 1, 0, .AHEAD. ) ;
#153 = DATE_AND_TIME ( #239, #197 ) ;
#154 = SECURITY_CLASSIFICATION ( '', '', #41 ) ;
#155 = PRODUCT ( 'eed7', 'eed7', '', ( #58 ) ) ;
#156 = APPROVAL_DATE_TIME ( #137, #61 ) ;
#157 = AXIS2_PLACEMENT_3D ( 'NONE', #125, #235, #170 ) ;
#158 = DIRECTION ( 'NONE',  ( 1.000000000000000000, 0.000000000000000000, 0.000000000000000000 ) ) ;
#159 = CIRCLE ( 'NONE', #115, 6.000000000000000888 ) ;
#160 = DIRECTION ( 'NONE',  ( 1.000000000000000000, 0.000000000000000000, 0.000000000000000000 ) ) ;
#161 = CYLINDRICAL_SURFACE ( 'NONE', #63, 3.100000000000000089 ) ;
#162 = AXIS2_PLACEMENT_3D ( 'NONE', #181, #33, #31 ) ;
#163 = AXIS2_PLACEMENT_3D ( 'NONE', #12, #32, #66 ) ;
#164 = DIRECTION ( 'NONE',  ( -0.000000000000000000, -0.000000000000000000, -1.000000000000000000 ) ) ;
#165 = ORIENTED_EDGE ( 'NONE', *, *, #91, .F. ) ;
#166 = CC_DESIGN_PERSON_AND_ORGANIZATION_ASSIGNMENT ( #6, #245, ( #124 ) ) ;
#167 = LINE ( 'NONE', #184, #46 ) ;
#168 = CYLINDRICAL_SURFACE ( 'NONE', #225, 6.000000000000000888 ) ;
#169 = CLOSED_SHELL ( 'NONE', ( #196, #35, #64, #15, #122, #247, #78 ) ) ;
#170 = DIRECTION ( 'NONE',  ( 1.000000000000000000, 0.000000000000000000, 0.000000000000000000 ) ) ;
#171 = ORIENTED_EDGE ( 'NONE', *, *, #105, .F. ) ;
#172 = APPROVAL_STATUS ( 'not_yet_approved' ) ;
#173 = APPROVAL_PERSON_ORGANIZATION ( #60, #61, #59 ) ;
#174 = DIRECTION ( 'NONE',  ( 1.000000000000000000, 0.000000000000000000, 0.000000000000000000 ) ) ;
#175 = CALENDAR_DATE ( 2022, 7, 7 ) ;
#176 = PERSON_AND_ORGANIZATION ( #101, #76 ) ;
#177 = CALENDAR_DATE ( 2022, 7, 7 ) ;
#178 = EDGE_CURVE ( 'NONE', #147, #110, #180, .T. ) ;
#179 =( LENGTH_UNIT ( ) NAMED_UNIT ( * ) SI_UNIT ( .MILLI., .METRE. ) );
#180 = CIRCLE ( 'NONE', #29, 6.000000000000000888 ) ;
#181 = CARTESIAN_POINT ( 'NONE',  ( 0.000000000000000000, 0.000000000000000000, 5.000000000000000000 ) ) ;
#182 = CARTESIAN_POINT ( 'NONE',  ( 0.000000000000000000, 0.000000000000000000, 5.000000000000000000 ) ) ;
#183 = AXIS2_PLACEMENT_3D ( 'NONE', #206, #145, #88 ) ;
#184 = CARTESIAN_POINT ( 'NONE',  ( 6.000000000000000888, 7.347880794884120722E-16, 5.000000000000000000 ) ) ;
#185 = CARTESIAN_POINT ( 'NONE',  ( 0.000000000000000000, 0.000000000000000000, 5.000000000000000000 ) ) ;
#186 = ORIENTED_EDGE ( 'NONE', *, *, #194, .F. ) ;
#187 = EDGE_CURVE ( 'NONE', #127, #207, #57, .T. ) ;
#188 = DIRECTION ( 'NONE',  ( -1.000000000000000000, 0.000000000000000000, 0.000000000000000000 ) ) ;
#189 = ORIENTED_EDGE ( 'NONE', *, *, #203, .F. ) ;
#190 = CALENDAR_DATE ( 2022, 7, 7 ) ;
#191 = DATE_TIME_ROLE ( 'creation_date' ) ;
#192 = CC_DESIGN_APPROVAL ( #108, ( #250 ) ) ;
#193 = PERSON_AND_ORGANIZATION_ROLE ( 'design_owner' ) ;
#194 = EDGE_CURVE ( 'NONE', #254, #34, #5, .T. ) ;
#195 = APPROVAL_STATUS ( 'not_yet_approved' ) ;
#196 = ADVANCED_FACE ( 'NONE', ( #86 ), #161, .T. ) ;
#197 = LOCAL_TIME ( 19, 38, 38.00000000000000000, #25 ) ;
#198 = DIRECTION ( 'NONE',  ( 0.000000000000000000, 0.000000000000000000, 1.000000000000000000 ) ) ;
#199 = DIRECTION ( 'NONE',  ( 0.000000000000000000, 0.000000000000000000, 1.000000000000000000 ) ) ;
#200 = UNCERTAINTY_MEASURE_WITH_UNIT (LENGTH_MEASURE( 1.000000000000000082E-05 ), #179, 'distance_accuracy_value', 'NONE');
#201 = DIRECTION ( 'NONE',  ( -0.000000000000000000, -0.000000000000000000, -1.000000000000000000 ) ) ;
#202 = EDGE_CURVE ( 'NONE', #207, #127, #229, .T. ) ;
#203 = EDGE_CURVE ( 'NONE', #104, #16, #159, .T. ) ;
#204 = FACE_OUTER_BOUND ( 'NONE', #149, .T. ) ;
#205 = ORIENTED_EDGE ( 'NONE', *, *, #187, .T. ) ;
#206 = CARTESIAN_POINT ( 'NONE',  ( 0.000000000000000000, 0.000000000000000000, 5.000000000000000000 ) ) ;
#207 = VERTEX_POINT ( 'NONE', #223 ) ;
#208 = FACE_OUTER_BOUND ( 'NONE', #93, .T. ) ;
#209 = ORIENTED_EDGE ( 'NONE', *, *, #126, .T. ) ;
#210 = CYLINDRICAL_SURFACE ( 'NONE', #118, 6.000000000000000888 ) ;
#211 = ORIENTED_EDGE ( 'NONE', *, *, #105, .T. ) ;
#212 = DIRECTION ( 'NONE',  ( 1.000000000000000000, 0.000000000000000000, 0.000000000000000000 ) ) ;
#213 = DIRECTION ( 'NONE',  ( 0.000000000000000000, 0.000000000000000000, 1.000000000000000000 ) ) ;
#214 = EDGE_CURVE ( 'NONE', #110, #104, #65, .T. ) ;
#215 = CARTESIAN_POINT ( 'NONE',  ( 0.000000000000000000, 0.000000000000000000, 0.000000000000000000 ) ) ;
#216 = COORDINATED_UNIVERSAL_TIME_OFFSET ( 1, 0, .AHEAD. ) ;
#217 = SHAPE_DEFINITION_REPRESENTATION ( #251, #74 ) ;
#218 =( NAMED_UNIT ( * ) SI_UNIT ( $, .STERADIAN. ) SOLID_ANGLE_UNIT ( ) );
#219 = LOCAL_TIME ( 19, 38, 38.00000000000000000, #216 ) ;
#220 = CYLINDRICAL_SURFACE ( 'NONE', #119, 3.100000000000000089 ) ;
#221 = CARTESIAN_POINT ( 'NONE',  ( 0.000000000000000000, 0.000000000000000000, 0.000000000000000000 ) ) ;
#222 = APPROVAL_PERSON_ORGANIZATION ( #111, #108, #94 ) ;
#223 = CARTESIAN_POINT ( 'NONE',  ( 3.100000000000000089, 3.796405077356794918E-16, 505.0000000000000000 ) ) ;
#224 = EDGE_CURVE ( 'NONE', #207, #254, #47, .T. ) ;
#225 = AXIS2_PLACEMENT_3D ( 'NONE', #107, #18, #92 ) ;
#226 = CC_DESIGN_PERSON_AND_ORGANIZATION_ASSIGNMENT ( #8, #193, ( #155 ) ) ;
#227 = CARTESIAN_POINT ( 'NONE',  ( 0.000000000000000000, 0.000000000000000000, 505.0000000000000000 ) ) ;
#228 = ORIENTED_EDGE ( 'NONE', *, *, #202, .F. ) ;
#229 = CIRCLE ( 'NONE', #163, 3.100000000000000089 ) ;
#230 = PLANE ( 'NONE',  #244 ) ;
#231 = ORIENTED_EDGE ( 'NONE', *, *, #194, .T. ) ;
#232 = DIRECTION ( 'NONE',  ( 1.000000000000000000, 0.000000000000000000, -0.000000000000000000 ) ) ;
#233 = EDGE_CURVE ( 'NONE', #34, #254, #17, .T. ) ;
#234 = ORIENTED_EDGE ( 'NONE', *, *, #187, .F. ) ;
#235 = DIRECTION ( 'NONE',  ( 0.000000000000000000, 0.000000000000000000, 1.000000000000000000 ) ) ;
#236 = ORIENTED_EDGE ( 'NONE', *, *, #233, .T. ) ;
#237 = CARTESIAN_POINT ( 'NONE',  ( -3.100000000000000089, 0.000000000000000000, 505.0000000000000000 ) ) ;
#238 = ORIENTED_EDGE ( 'NONE', *, *, #233, .F. ) ;
#239 = CALENDAR_DATE ( 2022, 7, 7 ) ;
#240 = APPROVAL ( #83, 'NEURÈENÝ' ) ;
#241 = DATE_AND_TIME ( #190, #132 ) ;
#242 = DATE_TIME_ROLE ( 'classification_date' ) ;
#243 = CC_DESIGN_APPROVAL ( #240, ( #124 ) ) ;
#244 = AXIS2_PLACEMENT_3D ( 'NONE', #227, #1, #48 ) ;
#245 = PERSON_AND_ORGANIZATION_ROLE ( 'design_supplier' ) ;
#246 = FACE_OUTER_BOUND ( 'NONE', #71, .T. ) ;
#247 = ADVANCED_FACE ( 'NONE', ( #246 ), #220, .T. ) ;
#248 = CARTESIAN_POINT ( 'NONE',  ( 0.000000000000000000, 0.000000000000000000, 505.0000000000000000 ) ) ;
#249 = DIRECTION ( 'NONE',  ( -0.000000000000000000, -0.000000000000000000, -1.000000000000000000 ) ) ;
#250 = PRODUCT_DEFINITION ( 'NEZNÁMÝ', '', #124, #30 ) ;
#251 = PRODUCT_DEFINITION_SHAPE ( 'NONE', 'NONE',  #250 ) ;
#252 = CARTESIAN_POINT ( 'NONE',  ( -3.100000000000000089, 0.000000000000000000, 5.000000000000000000 ) ) ;
#253 = ORIENTED_EDGE ( 'NONE', *, *, #203, .T. ) ;
#254 = VERTEX_POINT ( 'NONE', #117 ) ;
#255 = EDGE_LOOP ( 'NONE', ( #165, #19, #3, #253 ) ) ;
ENDSEC;
END-ISO-10303-21;
