ISO-10303-21;
HEADER;
FILE_DESCRIPTION (( 'STEP AP203' ),
    '1' );
FILE_NAME ('5e1b.STEP',
    '2022-07-07T17:39:02',
    ( '' ),
    ( '' ),
    'SwSTEP 2.0',
    'SolidWorks 2019',
    '' );
FILE_SCHEMA (( 'CONFIG_CONTROL_DESIGN' ));
ENDSEC;

DATA;
#1 = APPROVAL_STATUS ( 'not_yet_approved' ) ;
#2 = ORIENTED_EDGE ( 'NONE', *, *, #239, .F. ) ;
#3 = EDGE_CURVE ( 'NONE', #237, #133, #209, .T. ) ;
#4 = DIRECTION ( 'NONE',  ( -1.000000000000000000, 0.000000000000000000, 0.000000000000000000 ) ) ;
#5 = CC_DESIGN_APPROVAL ( #234, ( #216 ) ) ;
#6 = DIRECTION ( 'NONE',  ( 1.000000000000000000, 0.000000000000000000, 0.000000000000000000 ) ) ;
#7 = EDGE_LOOP ( 'NONE', ( #66, #220 ) ) ;
#8 = DIRECTION ( 'NONE',  ( 1.000000000000000000, 0.000000000000000000, 0.000000000000000000 ) ) ;
#9 = FACE_OUTER_BOUND ( 'NONE', #204, .T. ) ;
#10 = DIRECTION ( 'NONE',  ( 0.000000000000000000, 0.000000000000000000, 1.000000000000000000 ) ) ;
#11 = PERSON_AND_ORGANIZATION_ROLE ( 'design_owner' ) ;
#12 = EDGE_CURVE ( 'NONE', #206, #133, #147, .T. ) ;
#13 = DIRECTION ( 'NONE',  ( 0.000000000000000000, 0.000000000000000000, 1.000000000000000000 ) ) ;
#14 = PERSON_AND_ORGANIZATION ( #170, #250 ) ;
#15 = CARTESIAN_POINT ( 'NONE',  ( 0.000000000000000000, 0.000000000000000000, 5.000000000000000000 ) ) ;
#16 = DATE_AND_TIME ( #231, #135 ) ;
#17 = ADVANCED_FACE ( 'NONE', ( #226 ), #152, .T. ) ;
#18 = PRODUCT_DEFINITION_FORMATION_WITH_SPECIFIED_SOURCE ( 'LIBOVOLNÝ', '', #241, .NOT_KNOWN. ) ;
#19 = FACE_OUTER_BOUND ( 'NONE', #199, .T. ) ;
#20 = CARTESIAN_POINT ( 'NONE',  ( 6.000000000000000888, 7.347880794884120722E-16, 0.000000000000000000 ) ) ;
#21 = ORIENTED_EDGE ( 'NONE', *, *, #153, .T. ) ;
#22 = ADVANCED_BREP_SHAPE_REPRESENTATION ( '5e1b', ( #58, #80 ), #117 ) ;
#23 = LOCAL_TIME ( 19, 39, 2.000000000000000000, #69 ) ;
#24 = CARTESIAN_POINT ( 'NONE',  ( 0.000000000000000000, 0.000000000000000000, 0.000000000000000000 ) ) ;
#25 = EDGE_CURVE ( 'NONE', #244, #31, #99, .T. ) ;
#26 = DIRECTION ( 'NONE',  ( 1.000000000000000000, 0.000000000000000000, -0.000000000000000000 ) ) ;
#27 = FACE_OUTER_BOUND ( 'NONE', #44, .T. ) ;
#28 = CARTESIAN_POINT ( 'NONE',  ( 0.000000000000000000, 0.000000000000000000, 5.000000000000000000 ) ) ;
#29 = CC_DESIGN_PERSON_AND_ORGANIZATION_ASSIGNMENT ( #94, #154, ( #18 ) ) ;
#30 = FACE_OUTER_BOUND ( 'NONE', #7, .T. ) ;
#31 = VERTEX_POINT ( 'NONE', #107 ) ;
#32 = DATE_TIME_ROLE ( 'creation_date' ) ;
#33 = DIRECTION ( 'NONE',  ( -0.000000000000000000, -0.000000000000000000, -1.000000000000000000 ) ) ;
#34 = APPROVAL_ROLE ( '' ) ;
#35 = ADVANCED_FACE ( 'NONE', ( #30 ), #180, .F. ) ;
#36 = ORIENTED_EDGE ( 'NONE', *, *, #25, .T. ) ;
#37 = AXIS2_PLACEMENT_3D ( 'NONE', #171, #119, #8 ) ;
#38 = EDGE_CURVE ( 'NONE', #181, #214, #177, .T. ) ;
#39 = CC_DESIGN_PERSON_AND_ORGANIZATION_ASSIGNMENT ( #168, #11, ( #241 ) ) ;
#40 = AXIS2_PLACEMENT_3D ( 'NONE', #48, #10, #126 ) ;
#41 = CARTESIAN_POINT ( 'NONE',  ( -6.000000000000000888, 0.000000000000000000, 0.000000000000000000 ) ) ;
#42 = ORIENTED_EDGE ( 'NONE', *, *, #146, .F. ) ;
#43 = APPLICATION_PROTOCOL_DEFINITION ( 'international standard', 'config_control_design', 1994, #155 ) ;
#44 = EDGE_LOOP ( 'NONE', ( #110, #21 ) ) ;
#45 = DESIGN_CONTEXT ( 'detailed design', #160, 'design' ) ;
#46 = CARTESIAN_POINT ( 'NONE',  ( 0.000000000000000000, 0.000000000000000000, 5.000000000000000000 ) ) ;
#47 = EDGE_CURVE ( 'NONE', #133, #206, #140, .T. ) ;
#48 = CARTESIAN_POINT ( 'NONE',  ( 0.000000000000000000, 0.000000000000000000, 0.000000000000000000 ) ) ;
#49 = PERSON_AND_ORGANIZATION_ROLE ( 'creator' ) ;
#50 = AXIS2_PLACEMENT_3D ( 'NONE', #213, #196, #4 ) ;
#51 = ORIENTED_EDGE ( 'NONE', *, *, #3, .T. ) ;
#52 = ORIENTED_EDGE ( 'NONE', *, *, #239, .T. ) ;
#53 = COORDINATED_UNIVERSAL_TIME_OFFSET ( 1, 0, .AHEAD. ) ;
#54 = CARTESIAN_POINT ( 'NONE',  ( 6.000000000000000888, 7.347880794884120722E-16, 5.000000000000000000 ) ) ;
#55 = DATE_AND_TIME ( #74, #23 ) ;
#56 = CARTESIAN_POINT ( 'NONE',  ( 0.000000000000000000, 0.000000000000000000, 5.000000000000000000 ) ) ;
#57 = LOCAL_TIME ( 19, 39, 2.000000000000000000, #127 ) ;
#58 = MANIFOLD_SOLID_BREP ( 'Pøidat vysunutím3', #159 ) ;
#59 = VECTOR ( 'NONE', #105, 1000.000000000000000 ) ;
#60 = PRODUCT_RELATED_PRODUCT_CATEGORY ( 'detail', '', ( #241 ) ) ;
#61 = VECTOR ( 'NONE', #203, 1000.000000000000000 ) ;
#62 = DIRECTION ( 'NONE',  ( 0.000000000000000000, 0.000000000000000000, 1.000000000000000000 ) ) ;
#63 = CARTESIAN_POINT ( 'NONE',  ( 0.000000000000000000, 0.000000000000000000, 320.0000000000000000 ) ) ;
#64 = CIRCLE ( 'NONE', #75, 6.000000000000000888 ) ;
#65 = CARTESIAN_POINT ( 'NONE',  ( 0.000000000000000000, 0.000000000000000000, 320.0000000000000000 ) ) ;
#66 = ORIENTED_EDGE ( 'NONE', *, *, #142, .F. ) ;
#67 = DATE_AND_TIME ( #151, #233 ) ;
#68 = CYLINDRICAL_SURFACE ( 'NONE', #223, 6.000000000000000888 ) ;
#69 = COORDINATED_UNIVERSAL_TIME_OFFSET ( 1, 0, .AHEAD. ) ;
#70 = DIRECTION ( 'NONE',  ( 0.000000000000000000, 0.000000000000000000, 1.000000000000000000 ) ) ;
#71 = COORDINATED_UNIVERSAL_TIME_OFFSET ( 1, 0, .AHEAD. ) ;
#72 = CC_DESIGN_DATE_AND_TIME_ASSIGNMENT ( #67, #32, ( #156 ) ) ;
#73 = CARTESIAN_POINT ( 'NONE',  ( -3.100000000000000089, 0.000000000000000000, 5.000000000000000000 ) ) ;
#74 = CALENDAR_DATE ( 2022, 7, 7 ) ;
#75 = AXIS2_PLACEMENT_3D ( 'NONE', #138, #137, #141 ) ;
#76 = LOCAL_TIME ( 19, 39, 2.000000000000000000, #71 ) ;
#77 = AXIS2_PLACEMENT_3D ( 'NONE', #63, #122, #26 ) ;
#78 = EDGE_CURVE ( 'NONE', #244, #181, #89, .T. ) ;
#79 = AXIS2_PLACEMENT_3D ( 'NONE', #28, #91, #144 ) ;
#80 = AXIS2_PLACEMENT_3D ( 'NONE', #24, #101, #198 ) ;
#81 = ADVANCED_FACE ( 'NONE', ( #179, #9 ), #109, .T. ) ;
#82 = DIRECTION ( 'NONE',  ( 1.000000000000000000, 0.000000000000000000, 0.000000000000000000 ) ) ;
#83 = ORIENTED_EDGE ( 'NONE', *, *, #78, .F. ) ;
#84 = ORIENTED_EDGE ( 'NONE', *, *, #47, .T. ) ;
#85 = CYLINDRICAL_SURFACE ( 'NONE', #50, 3.100000000000000089 ) ;
#86 = ADVANCED_FACE ( 'NONE', ( #229 ), #68, .T. ) ;
#87 = DIRECTION ( 'NONE',  ( 0.000000000000000000, 0.000000000000000000, 1.000000000000000000 ) ) ;
#88 = ORIENTED_EDGE ( 'NONE', *, *, #25, .F. ) ;
#89 = LINE ( 'NONE', #54, #59 ) ;
#90 = APPROVAL_STATUS ( 'not_yet_approved' ) ;
#91 = DIRECTION ( 'NONE',  ( 0.000000000000000000, 0.000000000000000000, 1.000000000000000000 ) ) ;
#92 = ORIENTED_EDGE ( 'NONE', *, *, #187, .T. ) ;
#93 = AXIS2_PLACEMENT_3D ( 'NONE', #15, #87, #162 ) ;
#94 = PERSON_AND_ORGANIZATION ( #170, #250 ) ;
#95 = DIRECTION ( 'NONE',  ( 1.000000000000000000, 0.000000000000000000, 0.000000000000000000 ) ) ;
#96 = APPROVAL_ROLE ( '' ) ;
#97 = AXIS2_PLACEMENT_3D ( 'NONE', #56, #70, #95 ) ;
#98 = CC_DESIGN_APPROVAL ( #102, ( #156 ) ) ;
#99 = CIRCLE ( 'NONE', #97, 6.000000000000000888 ) ;
#100 = CARTESIAN_POINT ( 'NONE',  ( -3.100000000000000089, 0.000000000000000000, 320.0000000000000000 ) ) ;
#101 = DIRECTION ( 'NONE',  ( 0.000000000000000000, 0.000000000000000000, 1.000000000000000000 ) ) ;
#102 = APPROVAL ( #1, 'NEURÈENÝ' ) ;
#103 = CARTESIAN_POINT ( 'NONE',  ( 3.100000000000000089, 3.796405077356794918E-16, 320.0000000000000000 ) ) ;
#104 = APPROVAL_PERSON_ORGANIZATION ( #116, #102, #245 ) ;
#105 = DIRECTION ( 'NONE',  ( -0.000000000000000000, -0.000000000000000000, -1.000000000000000000 ) ) ;
#106 = ORIENTED_EDGE ( 'NONE', *, *, #3, .F. ) ;
#107 = CARTESIAN_POINT ( 'NONE',  ( -6.000000000000000888, 0.000000000000000000, 5.000000000000000000 ) ) ;
#108 = ORIENTED_EDGE ( 'NONE', *, *, #123, .T. ) ;
#109 = PLANE ( 'NONE',  #93 ) ;
#110 = ORIENTED_EDGE ( 'NONE', *, *, #146, .T. ) ;
#111 = APPROVAL_DATE_TIME ( #55, #208 ) ;
#112 = EDGE_LOOP ( 'NONE', ( #88, #149, #217, #2 ) ) ;
#113 = APPROVAL_PERSON_ORGANIZATION ( #163, #234, #34 ) ;
#114 = APPROVAL_DATE_TIME ( #16, #102 ) ;
#115 = ORIENTED_EDGE ( 'NONE', *, *, #142, .T. ) ;
#116 = PERSON_AND_ORGANIZATION ( #170, #250 ) ;
#117 =( GEOMETRIC_REPRESENTATION_CONTEXT ( 3 ) GLOBAL_UNCERTAINTY_ASSIGNED_CONTEXT ( ( #195 ) ) GLOBAL_UNIT_ASSIGNED_CONTEXT ( ( #157, #218, #175 ) ) REPRESENTATION_CONTEXT ( 'NONE', 'WORKASPACE' ) );
#118 = AXIS2_PLACEMENT_3D ( 'NONE', #243, #225, #221 ) ;
#119 = DIRECTION ( 'NONE',  ( 0.000000000000000000, 0.000000000000000000, 1.000000000000000000 ) ) ;
#120 = VECTOR ( 'NONE', #253, 1000.000000000000000 ) ;
#121 = CC_DESIGN_APPROVAL ( #208, ( #18 ) ) ;
#122 = DIRECTION ( 'NONE',  ( 0.000000000000000000, 0.000000000000000000, 1.000000000000000000 ) ) ;
#123 = EDGE_CURVE ( 'NONE', #201, #206, #164, .T. ) ;
#124 = CARTESIAN_POINT ( 'NONE',  ( 0.000000000000000000, 0.000000000000000000, 320.0000000000000000 ) ) ;
#125 = DIRECTION ( 'NONE',  ( 0.000000000000000000, 0.000000000000000000, 1.000000000000000000 ) ) ;
#126 = DIRECTION ( 'NONE',  ( 1.000000000000000000, 0.000000000000000000, -0.000000000000000000 ) ) ;
#127 = COORDINATED_UNIVERSAL_TIME_OFFSET ( 1, 0, .AHEAD. ) ;
#128 = CC_DESIGN_DATE_AND_TIME_ASSIGNMENT ( #207, #222, ( #216 ) ) ;
#129 = ORIENTED_EDGE ( 'NONE', *, *, #187, .F. ) ;
#130 = PERSON_AND_ORGANIZATION ( #170, #250 ) ;
#131 = CARTESIAN_POINT ( 'NONE',  ( 0.000000000000000000, 0.000000000000000000, 5.000000000000000000 ) ) ;
#132 = CALENDAR_DATE ( 2022, 7, 7 ) ;
#133 = VERTEX_POINT ( 'NONE', #73 ) ;
#134 = CYLINDRICAL_SURFACE ( 'NONE', #176, 3.100000000000000089 ) ;
#135 = LOCAL_TIME ( 19, 39, 2.000000000000000000, #165 ) ;
#136 = ADVANCED_FACE ( 'NONE', ( #251 ), #134, .T. ) ;
#137 = DIRECTION ( 'NONE',  ( 0.000000000000000000, 0.000000000000000000, 1.000000000000000000 ) ) ;
#138 = CARTESIAN_POINT ( 'NONE',  ( 0.000000000000000000, 0.000000000000000000, 0.000000000000000000 ) ) ;
#139 = ORIENTED_EDGE ( 'NONE', *, *, #123, .F. ) ;
#140 = CIRCLE ( 'NONE', #79, 3.100000000000000089 ) ;
#141 = DIRECTION ( 'NONE',  ( 1.000000000000000000, 0.000000000000000000, 0.000000000000000000 ) ) ;
#142 = EDGE_CURVE ( 'NONE', #214, #181, #64, .T. ) ;
#143 = LINE ( 'NONE', #158, #172 ) ;
#144 = DIRECTION ( 'NONE',  ( 1.000000000000000000, 0.000000000000000000, 0.000000000000000000 ) ) ;
#145 = PERSON_AND_ORGANIZATION_ROLE ( 'classification_officer' ) ;
#146 = EDGE_CURVE ( 'NONE', #237, #201, #211, .T. ) ;
#147 = CIRCLE ( 'NONE', #189, 3.100000000000000089 ) ;
#148 = ORIENTED_EDGE ( 'NONE', *, *, #153, .F. ) ;
#149 = ORIENTED_EDGE ( 'NONE', *, *, #78, .T. ) ;
#150 = ORIENTED_EDGE ( 'NONE', *, *, #12, .F. ) ;
#151 = CALENDAR_DATE ( 2022, 7, 7 ) ;
#152 = CYLINDRICAL_SURFACE ( 'NONE', #118, 6.000000000000000888 ) ;
#153 = EDGE_CURVE ( 'NONE', #201, #237, #184, .T. ) ;
#154 = PERSON_AND_ORGANIZATION_ROLE ( 'creator' ) ;
#155 = APPLICATION_CONTEXT ( 'configuration controlled 3d designs of mechanical parts and assemblies' ) ;
#156 = PRODUCT_DEFINITION ( 'NEZNÁMÝ', '', #18, #45 ) ;
#157 =( LENGTH_UNIT ( ) NAMED_UNIT ( * ) SI_UNIT ( .MILLI., .METRE. ) );
#158 = CARTESIAN_POINT ( 'NONE',  ( -6.000000000000000888, 0.000000000000000000, 5.000000000000000000 ) ) ;
#159 = CLOSED_SHELL ( 'NONE', ( #136, #17, #86, #81, #35, #197, #255 ) ) ;
#160 = APPLICATION_CONTEXT ( 'configuration controlled 3d designs of mechanical parts and assemblies' ) ;
#161 = CARTESIAN_POINT ( 'NONE',  ( 3.100000000000000089, 3.796405077356794918E-16, 320.0000000000000000 ) ) ;
#162 = DIRECTION ( 'NONE',  ( 1.000000000000000000, 0.000000000000000000, -0.000000000000000000 ) ) ;
#163 = PERSON_AND_ORGANIZATION ( #170, #250 ) ;
#164 = LINE ( 'NONE', #161, #120 ) ;
#165 = COORDINATED_UNIVERSAL_TIME_OFFSET ( 1, 0, .AHEAD. ) ;
#166 = DIRECTION ( 'NONE',  ( 1.000000000000000000, 0.000000000000000000, 0.000000000000000000 ) ) ;
#167 = DATE_AND_TIME ( #186, #57 ) ;
#168 = PERSON_AND_ORGANIZATION ( #170, #250 ) ;
#169 = PRODUCT_DEFINITION_SHAPE ( 'NONE', 'NONE',  #156 ) ;
#170 = PERSON ( 'NEURÈENÝ', 'NEURÈENÝ', 'NEURÈENÝ', ('NEURÈENÝ'), ('NEURÈENÝ'), ('NEURÈENÝ') ) ;
#171 = CARTESIAN_POINT ( 'NONE',  ( 0.000000000000000000, 0.000000000000000000, 5.000000000000000000 ) ) ;
#172 = VECTOR ( 'NONE', #238, 1000.000000000000000 ) ;
#173 = CARTESIAN_POINT ( 'NONE',  ( 6.000000000000000888, 7.347880794884120722E-16, 5.000000000000000000 ) ) ;
#174 = PLANE ( 'NONE',  #77 ) ;
#175 =( NAMED_UNIT ( * ) SI_UNIT ( $, .STERADIAN. ) SOLID_ANGLE_UNIT ( ) );
#176 = AXIS2_PLACEMENT_3D ( 'NONE', #65, #242, #178 ) ;
#177 = CIRCLE ( 'NONE', #249, 6.000000000000000888 ) ;
#178 = DIRECTION ( 'NONE',  ( -1.000000000000000000, 0.000000000000000000, 0.000000000000000000 ) ) ;
#179 = FACE_BOUND ( 'NONE', #219, .T. ) ;
#180 = PLANE ( 'NONE',  #40 ) ;
#181 = VERTEX_POINT ( 'NONE', #20 ) ;
#182 = DIRECTION ( 'NONE',  ( -1.000000000000000000, 0.000000000000000000, 0.000000000000000000 ) ) ;
#183 = ORIENTED_EDGE ( 'NONE', *, *, #12, .T. ) ;
#184 = CIRCLE ( 'NONE', #240, 3.100000000000000089 ) ;
#185 = CARTESIAN_POINT ( 'NONE',  ( -3.100000000000000089, 0.000000000000000000, 320.0000000000000000 ) ) ;
#186 = CALENDAR_DATE ( 2022, 7, 7 ) ;
#187 = EDGE_CURVE ( 'NONE', #31, #244, #190, .T. ) ;
#188 = PERSON_AND_ORGANIZATION ( #170, #250 ) ;
#189 = AXIS2_PLACEMENT_3D ( 'NONE', #46, #125, #246 ) ;
#190 = CIRCLE ( 'NONE', #37, 6.000000000000000888 ) ;
#191 = CC_DESIGN_PERSON_AND_ORGANIZATION_ASSIGNMENT ( #130, #202, ( #18 ) ) ;
#192 = CC_DESIGN_SECURITY_CLASSIFICATION ( #216, ( #18 ) ) ;
#193 = DIRECTION ( 'NONE',  ( 0.000000000000000000, 0.000000000000000000, 1.000000000000000000 ) ) ;
#194 = MECHANICAL_CONTEXT ( 'NONE', #155, 'mechanical' ) ;
#195 = UNCERTAINTY_MEASURE_WITH_UNIT (LENGTH_MEASURE( 1.000000000000000082E-05 ), #157, 'distance_accuracy_value', 'NONE');
#196 = DIRECTION ( 'NONE',  ( -0.000000000000000000, -0.000000000000000000, -1.000000000000000000 ) ) ;
#197 = ADVANCED_FACE ( 'NONE', ( #19 ), #85, .T. ) ;
#198 = DIRECTION ( 'NONE',  ( 1.000000000000000000, 0.000000000000000000, 0.000000000000000000 ) ) ;
#199 = EDGE_LOOP ( 'NONE', ( #139, #42, #51, #84 ) ) ;
#200 = CARTESIAN_POINT ( 'NONE',  ( 0.000000000000000000, 0.000000000000000000, 0.000000000000000000 ) ) ;
#201 = VERTEX_POINT ( 'NONE', #103 ) ;
#202 = PERSON_AND_ORGANIZATION_ROLE ( 'design_supplier' ) ;
#203 = DIRECTION ( 'NONE',  ( -0.000000000000000000, -0.000000000000000000, -1.000000000000000000 ) ) ;
#204 = EDGE_LOOP ( 'NONE', ( #92, #36 ) ) ;
#205 = APPLICATION_PROTOCOL_DEFINITION ( 'international standard', 'config_control_design', 1994, #160 ) ;
#206 = VERTEX_POINT ( 'NONE', #215 ) ;
#207 = DATE_AND_TIME ( #132, #76 ) ;
#208 = APPROVAL ( #90, 'NEURÈENÝ' ) ;
#209 = LINE ( 'NONE', #185, #61 ) ;
#210 = CC_DESIGN_PERSON_AND_ORGANIZATION_ASSIGNMENT ( #188, #49, ( #156 ) ) ;
#211 = CIRCLE ( 'NONE', #212, 3.100000000000000089 ) ;
#212 = AXIS2_PLACEMENT_3D ( 'NONE', #124, #193, #82 ) ;
#213 = CARTESIAN_POINT ( 'NONE',  ( 0.000000000000000000, 0.000000000000000000, 320.0000000000000000 ) ) ;
#214 = VERTEX_POINT ( 'NONE', #41 ) ;
#215 = CARTESIAN_POINT ( 'NONE',  ( 3.100000000000000089, 3.796405077356794918E-16, 5.000000000000000000 ) ) ;
#216 = SECURITY_CLASSIFICATION ( '', '', #252 ) ;
#217 = ORIENTED_EDGE ( 'NONE', *, *, #38, .T. ) ;
#218 =( NAMED_UNIT ( * ) PLANE_ANGLE_UNIT ( ) SI_UNIT ( $, .RADIAN. ) );
#219 = EDGE_LOOP ( 'NONE', ( #228, #150 ) ) ;
#220 = ORIENTED_EDGE ( 'NONE', *, *, #38, .F. ) ;
#221 = DIRECTION ( 'NONE',  ( -1.000000000000000000, 0.000000000000000000, 0.000000000000000000 ) ) ;
#222 = DATE_TIME_ROLE ( 'classification_date' ) ;
#223 = AXIS2_PLACEMENT_3D ( 'NONE', #131, #33, #182 ) ;
#224 = APPROVAL_PERSON_ORGANIZATION ( #227, #208, #96 ) ;
#225 = DIRECTION ( 'NONE',  ( -0.000000000000000000, -0.000000000000000000, -1.000000000000000000 ) ) ;
#226 = FACE_OUTER_BOUND ( 'NONE', #112, .T. ) ;
#227 = PERSON_AND_ORGANIZATION ( #170, #250 ) ;
#228 = ORIENTED_EDGE ( 'NONE', *, *, #47, .F. ) ;
#229 = FACE_OUTER_BOUND ( 'NONE', #247, .T. ) ;
#230 = SHAPE_DEFINITION_REPRESENTATION ( #169, #22 ) ;
#231 = CALENDAR_DATE ( 2022, 7, 7 ) ;
#232 = CC_DESIGN_PERSON_AND_ORGANIZATION_ASSIGNMENT ( #14, #145, ( #216 ) ) ;
#233 = LOCAL_TIME ( 19, 39, 2.000000000000000000, #53 ) ;
#234 = APPROVAL ( #248, 'NEURÈENÝ' ) ;
#235 = CARTESIAN_POINT ( 'NONE',  ( 0.000000000000000000, 0.000000000000000000, 320.0000000000000000 ) ) ;
#236 = EDGE_LOOP ( 'NONE', ( #148, #108, #183, #106 ) ) ;
#237 = VERTEX_POINT ( 'NONE', #100 ) ;
#238 = DIRECTION ( 'NONE',  ( -0.000000000000000000, -0.000000000000000000, -1.000000000000000000 ) ) ;
#239 = EDGE_CURVE ( 'NONE', #31, #214, #143, .T. ) ;
#240 = AXIS2_PLACEMENT_3D ( 'NONE', #235, #62, #6 ) ;
#241 = PRODUCT ( '5e1b', '5e1b', '', ( #194 ) ) ;
#242 = DIRECTION ( 'NONE',  ( -0.000000000000000000, -0.000000000000000000, -1.000000000000000000 ) ) ;
#243 = CARTESIAN_POINT ( 'NONE',  ( 0.000000000000000000, 0.000000000000000000, 5.000000000000000000 ) ) ;
#244 = VERTEX_POINT ( 'NONE', #173 ) ;
#245 = APPROVAL_ROLE ( '' ) ;
#246 = DIRECTION ( 'NONE',  ( 1.000000000000000000, 0.000000000000000000, 0.000000000000000000 ) ) ;
#247 = EDGE_LOOP ( 'NONE', ( #83, #129, #52, #115 ) ) ;
#248 = APPROVAL_STATUS ( 'not_yet_approved' ) ;
#249 = AXIS2_PLACEMENT_3D ( 'NONE', #200, #13, #166 ) ;
#250 = ORGANIZATION ( 'NEURÈENÝ', 'NEURÈENÝ', '' ) ;
#251 = FACE_OUTER_BOUND ( 'NONE', #236, .T. ) ;
#252 = SECURITY_CLASSIFICATION_LEVEL ( 'unclassified' ) ;
#253 = DIRECTION ( 'NONE',  ( -0.000000000000000000, -0.000000000000000000, -1.000000000000000000 ) ) ;
#254 = APPROVAL_DATE_TIME ( #167, #234 ) ;
#255 = ADVANCED_FACE ( 'NONE', ( #27 ), #174, .T. ) ;
ENDSEC;
END-ISO-10303-21;
