ISO-10303-21;
HEADER;
FILE_DESCRIPTION (( 'STEP AP203' ),
    '1' );
FILE_NAME ('6bda.STEP',
    '2022-07-07T17:31:58',
    ( '' ),
    ( '' ),
    'SwSTEP 2.0',
    'SolidWorks 2019',
    '' );
FILE_SCHEMA (( 'CONFIG_CONTROL_DESIGN' ));
ENDSEC;

DATA;
#1 = SECURITY_CLASSIFICATION ( '', '', #213 ) ;
#2 = CIRCLE ( 'NONE', #81, 7.000000000000000000 ) ;
#3 = EDGE_CURVE ( 'NONE', #25, #104, #240, .T. ) ;
#4 = DIRECTION ( 'NONE',  ( 0.000000000000000000, 0.000000000000000000, 1.000000000000000000 ) ) ;
#5 = CARTESIAN_POINT ( 'NONE',  ( 0.000000000000000000, 0.000000000000000000, 5.000000000000000000 ) ) ;
#6 = DIRECTION ( 'NONE',  ( 1.000000000000000000, 0.000000000000000000, 0.000000000000000000 ) ) ;
#7 = EDGE_CURVE ( 'NONE', #12, #108, #232, .T. ) ;
#8 = LOCAL_TIME ( 19, 31, 58.00000000000000000, #54 ) ;
#9 = ORIENTED_EDGE ( 'NONE', *, *, #47, .T. ) ;
#10 = DIRECTION ( 'NONE',  ( 0.000000000000000000, 0.000000000000000000, 1.000000000000000000 ) ) ;
#11 = DIRECTION ( 'NONE',  ( 0.000000000000000000, 0.000000000000000000, 1.000000000000000000 ) ) ;
#12 = VERTEX_POINT ( 'NONE', #188 ) ;
#13 = EDGE_LOOP ( 'NONE', ( #168, #154, #209, #150 ) ) ;
#14 = APPROVAL_PERSON_ORGANIZATION ( #246, #216, #208 ) ;
#15 = PLANE ( 'NONE',  #236 ) ;
#16 = CALENDAR_DATE ( 2022, 7, 7 ) ;
#17 = PERSON_AND_ORGANIZATION_ROLE ( 'design_owner' ) ;
#18 = PRODUCT_DEFINITION_FORMATION_WITH_SPECIFIED_SOURCE ( 'LIBOVOLNÝ', '', #30, .NOT_KNOWN. ) ;
#19 = APPLICATION_CONTEXT ( 'configuration controlled 3d designs of mechanical parts and assemblies' ) ;
#20 = AXIS2_PLACEMENT_3D ( 'NONE', #218, #4, #48 ) ;
#21 = LINE ( 'NONE', #200, #177 ) ;
#22 = CC_DESIGN_APPROVAL ( #216, ( #18 ) ) ;
#23 = CARTESIAN_POINT ( 'NONE',  ( 4.099999999999999645, 5.021051876504147385E-16, 5.000000000000000000 ) ) ;
#24 = CARTESIAN_POINT ( 'NONE',  ( 0.000000000000000000, 0.000000000000000000, 5.000000000000000000 ) ) ;
#25 = VERTEX_POINT ( 'NONE', #251 ) ;
#26 = PLANE ( 'NONE',  #20 ) ;
#27 = VECTOR ( 'NONE', #131, 1000.000000000000000 ) ;
#28 = LOCAL_TIME ( 19, 31, 58.00000000000000000, #40 ) ;
#29 = ORIENTED_EDGE ( 'NONE', *, *, #203, .T. ) ;
#30 = PRODUCT ( '6bda', '6bda', '', ( #173 ) ) ;
#31 = ORIENTED_EDGE ( 'NONE', *, *, #137, .F. ) ;
#32 = COORDINATED_UNIVERSAL_TIME_OFFSET ( 1, 0, .AHEAD. ) ;
#33 = EDGE_LOOP ( 'NONE', ( #70, #50 ) ) ;
#34 = CC_DESIGN_PERSON_AND_ORGANIZATION_ASSIGNMENT ( #136, #93, ( #1 ) ) ;
#35 = APPLICATION_PROTOCOL_DEFINITION ( 'international standard', 'config_control_design', 1994, #64 ) ;
#36 = ORIENTED_EDGE ( 'NONE', *, *, #53, .T. ) ;
#37 = DIRECTION ( 'NONE',  ( 0.000000000000000000, 0.000000000000000000, 1.000000000000000000 ) ) ;
#38 = CC_DESIGN_DATE_AND_TIME_ASSIGNMENT ( #114, #96, ( #1 ) ) ;
#39 = PERSON_AND_ORGANIZATION_ROLE ( 'creator' ) ;
#40 = COORDINATED_UNIVERSAL_TIME_OFFSET ( 1, 0, .AHEAD. ) ;
#41 = CIRCLE ( 'NONE', #241, 4.099999999999999645 ) ;
#42 = AXIS2_PLACEMENT_3D ( 'NONE', #77, #89, #148 ) ;
#43 = CC_DESIGN_PERSON_AND_ORGANIZATION_ASSIGNMENT ( #61, #39, ( #99 ) ) ;
#44 = FACE_OUTER_BOUND ( 'NONE', #75, .T. ) ;
#45 = FACE_OUTER_BOUND ( 'NONE', #201, .T. ) ;
#46 = AXIS2_PLACEMENT_3D ( 'NONE', #95, #37, #112 ) ;
#47 = EDGE_CURVE ( 'NONE', #228, #107, #100, .T. ) ;
#48 = DIRECTION ( 'NONE',  ( 1.000000000000000000, 0.000000000000000000, -0.000000000000000000 ) ) ;
#49 = DIRECTION ( 'NONE',  ( 0.000000000000000000, 0.000000000000000000, 1.000000000000000000 ) ) ;
#50 = ORIENTED_EDGE ( 'NONE', *, *, #139, .T. ) ;
#51 = AXIS2_PLACEMENT_3D ( 'NONE', #147, #242, #6 ) ;
#52 = ORIENTED_EDGE ( 'NONE', *, *, #7, .T. ) ;
#53 = EDGE_CURVE ( 'NONE', #104, #107, #229, .T. ) ;
#54 = COORDINATED_UNIVERSAL_TIME_OFFSET ( 1, 0, .AHEAD. ) ;
#55 = ORIENTED_EDGE ( 'NONE', *, *, #169, .F. ) ;
#56 = APPROVAL_ROLE ( '' ) ;
#57 = DIRECTION ( 'NONE',  ( 1.000000000000000000, 0.000000000000000000, 0.000000000000000000 ) ) ;
#58 =( NAMED_UNIT ( * ) PLANE_ANGLE_UNIT ( ) SI_UNIT ( $, .RADIAN. ) );
#59 = APPROVAL_PERSON_ORGANIZATION ( #175, #223, #172 ) ;
#60 = CC_DESIGN_DATE_AND_TIME_ASSIGNMENT ( #193, #130, ( #99 ) ) ;
#61 = PERSON_AND_ORGANIZATION ( #191, #117 ) ;
#62 = UNCERTAINTY_MEASURE_WITH_UNIT (LENGTH_MEASURE( 1.000000000000000082E-05 ), #76, 'distance_accuracy_value', 'NONE');
#63 = AXIS2_PLACEMENT_3D ( 'NONE', #73, #234, #252 ) ;
#64 = APPLICATION_CONTEXT ( 'configuration controlled 3d designs of mechanical parts and assemblies' ) ;
#65 = ADVANCED_FACE ( 'NONE', ( #124 ), #219, .T. ) ;
#66 = CARTESIAN_POINT ( 'NONE',  ( 0.000000000000000000, 0.000000000000000000, 5.000000000000000000 ) ) ;
#67 = DIRECTION ( 'NONE',  ( -0.000000000000000000, -0.000000000000000000, -1.000000000000000000 ) ) ;
#68 = CARTESIAN_POINT ( 'NONE',  ( 0.000000000000000000, 0.000000000000000000, 205.0000000000000284 ) ) ;
#69 = DIRECTION ( 'NONE',  ( -1.000000000000000000, 0.000000000000000000, 0.000000000000000000 ) ) ;
#70 = ORIENTED_EDGE ( 'NONE', *, *, #162, .T. ) ;
#71 = DIRECTION ( 'NONE',  ( -0.000000000000000000, -0.000000000000000000, -1.000000000000000000 ) ) ;
#72 = DIRECTION ( 'NONE',  ( 0.000000000000000000, 0.000000000000000000, 1.000000000000000000 ) ) ;
#73 = CARTESIAN_POINT ( 'NONE',  ( 0.000000000000000000, 0.000000000000000000, 205.0000000000000284 ) ) ;
#74 = LOCAL_TIME ( 19, 31, 58.00000000000000000, #32 ) ;
#75 = EDGE_LOOP ( 'NONE', ( #31, #36, #29, #92 ) ) ;
#76 =( LENGTH_UNIT ( ) NAMED_UNIT ( * ) SI_UNIT ( .MILLI., .METRE. ) );
#77 = CARTESIAN_POINT ( 'NONE',  ( 0.000000000000000000, 0.000000000000000000, 0.000000000000000000 ) ) ;
#78 = PERSON_AND_ORGANIZATION_ROLE ( 'creator' ) ;
#79 = EDGE_CURVE ( 'NONE', #25, #228, #195, .T. ) ;
#80 = PERSON_AND_ORGANIZATION ( #191, #117 ) ;
#81 = AXIS2_PLACEMENT_3D ( 'NONE', #160, #238, #197 ) ;
#82 = APPROVAL_STATUS ( 'not_yet_approved' ) ;
#83 = CC_DESIGN_PERSON_AND_ORGANIZATION_ASSIGNMENT ( #214, #189, ( #18 ) ) ;
#84 = DIRECTION ( 'NONE',  ( 1.000000000000000000, 0.000000000000000000, -0.000000000000000000 ) ) ;
#85 = CYLINDRICAL_SURFACE ( 'NONE', #63, 4.099999999999999645 ) ;
#86 = FACE_OUTER_BOUND ( 'NONE', #164, .T. ) ;
#87 = ORIENTED_EDGE ( 'NONE', *, *, #53, .F. ) ;
#88 = FACE_OUTER_BOUND ( 'NONE', #199, .T. ) ;
#89 = DIRECTION ( 'NONE',  ( 0.000000000000000000, 0.000000000000000000, 1.000000000000000000 ) ) ;
#90 = APPLICATION_PROTOCOL_DEFINITION ( 'international standard', 'config_control_design', 1994, #19 ) ;
#91 = CARTESIAN_POINT ( 'NONE',  ( 0.000000000000000000, 0.000000000000000000, 5.000000000000000000 ) ) ;
#92 = ORIENTED_EDGE ( 'NONE', *, *, #79, .F. ) ;
#93 = PERSON_AND_ORGANIZATION_ROLE ( 'classification_officer' ) ;
#94 = DIRECTION ( 'NONE',  ( 1.000000000000000000, 0.000000000000000000, -0.000000000000000000 ) ) ;
#95 = CARTESIAN_POINT ( 'NONE',  ( 0.000000000000000000, 0.000000000000000000, 0.000000000000000000 ) ) ;
#96 = DATE_TIME_ROLE ( 'classification_date' ) ;
#97 = AXIS2_PLACEMENT_3D ( 'NONE', #66, #163, #122 ) ;
#98 = ADVANCED_FACE ( 'NONE', ( #45 ), #145, .T. ) ;
#99 = PRODUCT_DEFINITION ( 'NEZNÁMÝ', '', #18, #116 ) ;
#100 = CIRCLE ( 'NONE', #42, 7.000000000000000000 ) ;
#101 = DIRECTION ( 'NONE',  ( -0.000000000000000000, -0.000000000000000000, -1.000000000000000000 ) ) ;
#102 = FACE_OUTER_BOUND ( 'NONE', #13, .T. ) ;
#103 = FACE_BOUND ( 'NONE', #182, .T. ) ;
#104 = VERTEX_POINT ( 'NONE', #181 ) ;
#105 = AXIS2_PLACEMENT_3D ( 'NONE', #239, #67, #69 ) ;
#106 = CARTESIAN_POINT ( 'NONE',  ( -4.099999999999999645, 0.000000000000000000, 205.0000000000000284 ) ) ;
#107 = VERTEX_POINT ( 'NONE', #161 ) ;
#108 = VERTEX_POINT ( 'NONE', #23 ) ;
#109 = DIRECTION ( 'NONE',  ( 1.000000000000000000, 0.000000000000000000, 0.000000000000000000 ) ) ;
#110 = CALENDAR_DATE ( 2022, 7, 7 ) ;
#111 = ORIENTED_EDGE ( 'NONE', *, *, #203, .F. ) ;
#112 = DIRECTION ( 'NONE',  ( 1.000000000000000000, 0.000000000000000000, 0.000000000000000000 ) ) ;
#113 = CALENDAR_DATE ( 2022, 7, 7 ) ;
#114 = DATE_AND_TIME ( #255, #28 ) ;
#115 = AXIS2_PLACEMENT_3D ( 'NONE', #68, #142, #221 ) ;
#116 = DESIGN_CONTEXT ( 'detailed design', #19, 'design' ) ;
#117 = ORGANIZATION ( 'NEURÈENÝ', 'NEURÈENÝ', '' ) ;
#118 = LOCAL_TIME ( 19, 31, 58.00000000000000000, #134 ) ;
#119 = CARTESIAN_POINT ( 'NONE',  ( -4.099999999999999645, 0.000000000000000000, 205.0000000000000284 ) ) ;
#120 = CC_DESIGN_PERSON_AND_ORGANIZATION_ASSIGNMENT ( #190, #17, ( #30 ) ) ;
#121 = VECTOR ( 'NONE', #71, 1000.000000000000000 ) ;
#122 = DIRECTION ( 'NONE',  ( -1.000000000000000000, 0.000000000000000000, 0.000000000000000000 ) ) ;
#123 = DIRECTION ( 'NONE',  ( -1.000000000000000000, 0.000000000000000000, 0.000000000000000000 ) ) ;
#124 = FACE_OUTER_BOUND ( 'NONE', #127, .T. ) ;
#125 = DIRECTION ( 'NONE',  ( 1.000000000000000000, 0.000000000000000000, 0.000000000000000000 ) ) ;
#126 = ORIENTED_EDGE ( 'NONE', *, *, #137, .T. ) ;
#127 = EDGE_LOOP ( 'NONE', ( #87, #207, #205, #9 ) ) ;
#128 = CARTESIAN_POINT ( 'NONE',  ( 0.000000000000000000, 0.000000000000000000, 205.0000000000000284 ) ) ;
#129 = VERTEX_POINT ( 'NONE', #198 ) ;
#130 = DATE_TIME_ROLE ( 'creation_date' ) ;
#131 = DIRECTION ( 'NONE',  ( -0.000000000000000000, -0.000000000000000000, -1.000000000000000000 ) ) ;
#132 = MANIFOLD_SOLID_BREP ( 'Pøidat vysunutím3', #210 ) ;
#133 = ADVANCED_BREP_SHAPE_REPRESENTATION ( '6bda', ( #132, #46 ), #212 ) ;
#134 = COORDINATED_UNIVERSAL_TIME_OFFSET ( 1, 0, .AHEAD. ) ;
#135 = COORDINATED_UNIVERSAL_TIME_OFFSET ( 1, 0, .AHEAD. ) ;
#136 = PERSON_AND_ORGANIZATION ( #191, #117 ) ;
#137 = EDGE_CURVE ( 'NONE', #104, #25, #202, .T. ) ;
#138 = CIRCLE ( 'NONE', #235, 4.099999999999999645 ) ;
#139 = EDGE_CURVE ( 'NONE', #129, #186, #248, .T. ) ;
#140 = CC_DESIGN_SECURITY_CLASSIFICATION ( #1, ( #18 ) ) ;
#141 = LINE ( 'NONE', #119, #121 ) ;
#142 = DIRECTION ( 'NONE',  ( 0.000000000000000000, 0.000000000000000000, 1.000000000000000000 ) ) ;
#143 = DIRECTION ( 'NONE',  ( 1.000000000000000000, 0.000000000000000000, 0.000000000000000000 ) ) ;
#144 = EDGE_CURVE ( 'NONE', #108, #12, #138, .T. ) ;
#145 = CYLINDRICAL_SURFACE ( 'NONE', #105, 4.099999999999999645 ) ;
#146 = ORIENTED_EDGE ( 'NONE', *, *, #47, .F. ) ;
#147 = CARTESIAN_POINT ( 'NONE',  ( 0.000000000000000000, 0.000000000000000000, 5.000000000000000000 ) ) ;
#148 = DIRECTION ( 'NONE',  ( 1.000000000000000000, 0.000000000000000000, 0.000000000000000000 ) ) ;
#149 = FACE_OUTER_BOUND ( 'NONE', #33, .T. ) ;
#150 = ORIENTED_EDGE ( 'NONE', *, *, #152, .F. ) ;
#151 = APPROVAL_DATE_TIME ( #253, #223 ) ;
#152 = EDGE_CURVE ( 'NONE', #186, #12, #141, .T. ) ;
#153 =( NAMED_UNIT ( * ) SI_UNIT ( $, .STERADIAN. ) SOLID_ANGLE_UNIT ( ) );
#154 = ORIENTED_EDGE ( 'NONE', *, *, #169, .T. ) ;
#155 = AXIS2_PLACEMENT_3D ( 'NONE', #24, #224, #123 ) ;
#156 = CALENDAR_DATE ( 2022, 7, 7 ) ;
#157 = PERSON_AND_ORGANIZATION ( #191, #117 ) ;
#158 = AXIS2_PLACEMENT_3D ( 'NONE', #91, #72, #109 ) ;
#159 = PRODUCT_RELATED_PRODUCT_CATEGORY ( 'detail', '', ( #30 ) ) ;
#160 = CARTESIAN_POINT ( 'NONE',  ( 0.000000000000000000, 0.000000000000000000, 0.000000000000000000 ) ) ;
#161 = CARTESIAN_POINT ( 'NONE',  ( 7.000000000000000000, 8.572527594031473190E-16, 0.000000000000000000 ) ) ;
#162 = EDGE_CURVE ( 'NONE', #186, #129, #41, .T. ) ;
#163 = DIRECTION ( 'NONE',  ( -0.000000000000000000, -0.000000000000000000, -1.000000000000000000 ) ) ;
#164 = EDGE_LOOP ( 'NONE', ( #146, #111 ) ) ;
#165 = PLANE ( 'NONE',  #194 ) ;
#166 = ORIENTED_EDGE ( 'NONE', *, *, #7, .F. ) ;
#167 = DATE_AND_TIME ( #156, #183 ) ;
#168 = ORIENTED_EDGE ( 'NONE', *, *, #139, .F. ) ;
#169 = EDGE_CURVE ( 'NONE', #129, #108, #21, .T. ) ;
#170 = DATE_AND_TIME ( #110, #8 ) ;
#171 = APPROVAL_STATUS ( 'not_yet_approved' ) ;
#172 = APPROVAL_ROLE ( '' ) ;
#173 = MECHANICAL_CONTEXT ( 'NONE', #64, 'mechanical' ) ;
#174 = CC_DESIGN_PERSON_AND_ORGANIZATION_ASSIGNMENT ( #157, #78, ( #18 ) ) ;
#175 = PERSON_AND_ORGANIZATION ( #191, #117 ) ;
#176 = VECTOR ( 'NONE', #178, 1000.000000000000000 ) ;
#177 = VECTOR ( 'NONE', #101, 1000.000000000000000 ) ;
#178 = DIRECTION ( 'NONE',  ( -0.000000000000000000, -0.000000000000000000, -1.000000000000000000 ) ) ;
#179 = ADVANCED_FACE ( 'NONE', ( #86 ), #26, .F. ) ;
#180 = CARTESIAN_POINT ( 'NONE',  ( 0.000000000000000000, 0.000000000000000000, 205.0000000000000284 ) ) ;
#181 = CARTESIAN_POINT ( 'NONE',  ( 7.000000000000000000, 8.572527594031473190E-16, 5.000000000000000000 ) ) ;
#182 = EDGE_LOOP ( 'NONE', ( #166, #243 ) ) ;
#183 = LOCAL_TIME ( 19, 31, 58.00000000000000000, #135 ) ;
#184 = CYLINDRICAL_SURFACE ( 'NONE', #155, 7.000000000000000000 ) ;
#185 = ORIENTED_EDGE ( 'NONE', *, *, #3, .T. ) ;
#186 = VERTEX_POINT ( 'NONE', #106 ) ;
#187 = APPROVAL_DATE_TIME ( #167, #254 ) ;
#188 = CARTESIAN_POINT ( 'NONE',  ( -4.099999999999999645, 0.000000000000000000, 5.000000000000000000 ) ) ;
#189 = PERSON_AND_ORGANIZATION_ROLE ( 'design_supplier' ) ;
#190 = PERSON_AND_ORGANIZATION ( #191, #117 ) ;
#191 = PERSON ( 'NEURÈENÝ', 'NEURÈENÝ', 'NEURÈENÝ', ('NEURÈENÝ'), ('NEURÈENÝ'), ('NEURÈENÝ') ) ;
#192 = ADVANCED_FACE ( 'NONE', ( #44 ), #184, .T. ) ;
#193 = DATE_AND_TIME ( #113, #74 ) ;
#194 = AXIS2_PLACEMENT_3D ( 'NONE', #5, #237, #84 ) ;
#195 = LINE ( 'NONE', #220, #176 ) ;
#196 = ADVANCED_FACE ( 'NONE', ( #103, #88 ), #165, .T. ) ;
#197 = DIRECTION ( 'NONE',  ( 1.000000000000000000, 0.000000000000000000, 0.000000000000000000 ) ) ;
#198 = CARTESIAN_POINT ( 'NONE',  ( 4.099999999999999645, 5.021051876504147385E-16, 205.0000000000000284 ) ) ;
#199 = EDGE_LOOP ( 'NONE', ( #185, #126 ) ) ;
#200 = CARTESIAN_POINT ( 'NONE',  ( 4.099999999999999645, 5.021051876504147385E-16, 205.0000000000000284 ) ) ;
#201 = EDGE_LOOP ( 'NONE', ( #55, #245, #222, #52 ) ) ;
#202 = CIRCLE ( 'NONE', #51, 7.000000000000000000 ) ;
#203 = EDGE_CURVE ( 'NONE', #107, #228, #2, .T. ) ;
#204 = PRODUCT_DEFINITION_SHAPE ( 'NONE', 'NONE',  #99 ) ;
#205 = ORIENTED_EDGE ( 'NONE', *, *, #79, .T. ) ;
#206 = APPROVAL_STATUS ( 'not_yet_approved' ) ;
#207 = ORIENTED_EDGE ( 'NONE', *, *, #3, .F. ) ;
#208 = APPROVAL_ROLE ( '' ) ;
#209 = ORIENTED_EDGE ( 'NONE', *, *, #144, .T. ) ;
#210 = CLOSED_SHELL ( 'NONE', ( #211, #192, #65, #196, #179, #98, #215 ) ) ;
#211 = ADVANCED_FACE ( 'NONE', ( #102 ), #85, .T. ) ;
#212 =( GEOMETRIC_REPRESENTATION_CONTEXT ( 3 ) GLOBAL_UNCERTAINTY_ASSIGNED_CONTEXT ( ( #62 ) ) GLOBAL_UNIT_ASSIGNED_CONTEXT ( ( #76, #58, #153 ) ) REPRESENTATION_CONTEXT ( 'NONE', 'WORKASPACE' ) );
#213 = SECURITY_CLASSIFICATION_LEVEL ( 'unclassified' ) ;
#214 = PERSON_AND_ORGANIZATION ( #191, #117 ) ;
#215 = ADVANCED_FACE ( 'NONE', ( #149 ), #15, .T. ) ;
#216 = APPROVAL ( #206, 'NEURÈENÝ' ) ;
#217 = CC_DESIGN_APPROVAL ( #254, ( #99 ) ) ;
#218 = CARTESIAN_POINT ( 'NONE',  ( 0.000000000000000000, 0.000000000000000000, 0.000000000000000000 ) ) ;
#219 = CYLINDRICAL_SURFACE ( 'NONE', #97, 7.000000000000000000 ) ;
#220 = CARTESIAN_POINT ( 'NONE',  ( -7.000000000000000000, 0.000000000000000000, 5.000000000000000000 ) ) ;
#221 = DIRECTION ( 'NONE',  ( 1.000000000000000000, 0.000000000000000000, 0.000000000000000000 ) ) ;
#222 = ORIENTED_EDGE ( 'NONE', *, *, #152, .T. ) ;
#223 = APPROVAL ( #82, 'NEURÈENÝ' ) ;
#224 = DIRECTION ( 'NONE',  ( -0.000000000000000000, -0.000000000000000000, -1.000000000000000000 ) ) ;
#225 = CARTESIAN_POINT ( 'NONE',  ( 7.000000000000000000, 8.572527594031473190E-16, 5.000000000000000000 ) ) ;
#226 = AXIS2_PLACEMENT_3D ( 'NONE', #247, #11, #57 ) ;
#227 = CARTESIAN_POINT ( 'NONE',  ( -7.000000000000000000, 0.000000000000000000, 0.000000000000000000 ) ) ;
#228 = VERTEX_POINT ( 'NONE', #227 ) ;
#229 = LINE ( 'NONE', #225, #27 ) ;
#230 = SHAPE_DEFINITION_REPRESENTATION ( #204, #133 ) ;
#231 = DIRECTION ( 'NONE',  ( 0.000000000000000000, 0.000000000000000000, 1.000000000000000000 ) ) ;
#232 = CIRCLE ( 'NONE', #226, 4.099999999999999645 ) ;
#233 = APPROVAL_PERSON_ORGANIZATION ( #80, #254, #56 ) ;
#234 = DIRECTION ( 'NONE',  ( -0.000000000000000000, -0.000000000000000000, -1.000000000000000000 ) ) ;
#235 = AXIS2_PLACEMENT_3D ( 'NONE', #244, #49, #143 ) ;
#236 = AXIS2_PLACEMENT_3D ( 'NONE', #128, #231, #94 ) ;
#237 = DIRECTION ( 'NONE',  ( 0.000000000000000000, 0.000000000000000000, 1.000000000000000000 ) ) ;
#238 = DIRECTION ( 'NONE',  ( 0.000000000000000000, 0.000000000000000000, 1.000000000000000000 ) ) ;
#239 = CARTESIAN_POINT ( 'NONE',  ( 0.000000000000000000, 0.000000000000000000, 205.0000000000000284 ) ) ;
#240 = CIRCLE ( 'NONE', #158, 7.000000000000000000 ) ;
#241 = AXIS2_PLACEMENT_3D ( 'NONE', #180, #10, #125 ) ;
#242 = DIRECTION ( 'NONE',  ( 0.000000000000000000, 0.000000000000000000, 1.000000000000000000 ) ) ;
#243 = ORIENTED_EDGE ( 'NONE', *, *, #144, .F. ) ;
#244 = CARTESIAN_POINT ( 'NONE',  ( 0.000000000000000000, 0.000000000000000000, 5.000000000000000000 ) ) ;
#245 = ORIENTED_EDGE ( 'NONE', *, *, #162, .F. ) ;
#246 = PERSON_AND_ORGANIZATION ( #191, #117 ) ;
#247 = CARTESIAN_POINT ( 'NONE',  ( 0.000000000000000000, 0.000000000000000000, 5.000000000000000000 ) ) ;
#248 = CIRCLE ( 'NONE', #115, 4.099999999999999645 ) ;
#249 = CC_DESIGN_APPROVAL ( #223, ( #1 ) ) ;
#250 = APPROVAL_DATE_TIME ( #170, #216 ) ;
#251 = CARTESIAN_POINT ( 'NONE',  ( -7.000000000000000000, 0.000000000000000000, 5.000000000000000000 ) ) ;
#252 = DIRECTION ( 'NONE',  ( -1.000000000000000000, 0.000000000000000000, 0.000000000000000000 ) ) ;
#253 = DATE_AND_TIME ( #16, #118 ) ;
#254 = APPROVAL ( #171, 'NEURÈENÝ' ) ;
#255 = CALENDAR_DATE ( 2022, 7, 7 ) ;
ENDSEC;
END-ISO-10303-21;
