ISO-10303-21;
HEADER;
FILE_DESCRIPTION (( 'STEP AP203' ),
    '1' );
FILE_NAME ('de9d.STEP',
    '2023-02-13T15:05:46',
    ( '' ),
    ( '' ),
    'SwSTEP 2.0',
    'SolidWorks 2019',
    '' );
FILE_SCHEMA (( 'CONFIG_CONTROL_DESIGN' ));
ENDSEC;

DATA;
#1 = CARTESIAN_POINT ( 'NONE',  ( -2.100000000000000089, 0.000000000000000000, 3.000000000000000000 ) ) ;
#2 = DIRECTION ( 'NONE',  ( 0.000000000000000000, 0.000000000000000000, 1.000000000000000000 ) ) ;
#3 = DESIGN_CONTEXT ( 'detailed design', #102, 'design' ) ;
#4 = PERSON_AND_ORGANIZATION ( #193, #93 ) ;
#5 = CYLINDRICAL_SURFACE ( 'NONE', #186, 4.000000000000000000 ) ;
#6 =( GEOMETRIC_REPRESENTATION_CONTEXT ( 3 ) GLOBAL_UNCERTAINTY_ASSIGNED_CONTEXT ( ( #237 ) ) GLOBAL_UNIT_ASSIGNED_CONTEXT ( ( #112, #232, #97 ) ) REPRESENTATION_CONTEXT ( 'NONE', 'WORKASPACE' ) );
#7 = COORDINATED_UNIVERSAL_TIME_OFFSET ( 1, 0, .AHEAD. ) ;
#8 = ORIENTED_EDGE ( 'NONE', *, *, #14, .F. ) ;
#9 = PRODUCT_RELATED_PRODUCT_CATEGORY ( 'detail', '', ( #197 ) ) ;
#10 = CALENDAR_DATE ( 2023, 13, 2 ) ;
#11 = APPROVAL_DATE_TIME ( #64, #125 ) ;
#12 = DIRECTION ( 'NONE',  ( 0.000000000000000000, 0.000000000000000000, 1.000000000000000000 ) ) ;
#13 = FACE_OUTER_BOUND ( 'NONE', #42, .T. ) ;
#14 = EDGE_CURVE ( 'NONE', #120, #89, #150, .T. ) ;
#15 = CARTESIAN_POINT ( 'NONE',  ( 0.000000000000000000, 0.000000000000000000, 3.000000000000000000 ) ) ;
#16 = PLANE ( 'NONE',  #59 ) ;
#17 = APPROVAL_PERSON_ORGANIZATION ( #181, #195, #159 ) ;
#18 = ORIENTED_EDGE ( 'NONE', *, *, #91, .T. ) ;
#19 = DIRECTION ( 'NONE',  ( 0.000000000000000000, 0.000000000000000000, 1.000000000000000000 ) ) ;
#20 = ADVANCED_FACE ( 'NONE', ( #250 ), #142, .T. ) ;
#21 = PERSON_AND_ORGANIZATION ( #193, #93 ) ;
#22 = DIRECTION ( 'NONE',  ( 0.000000000000000000, 0.000000000000000000, 1.000000000000000000 ) ) ;
#23 = AXIS2_PLACEMENT_3D ( 'NONE', #249, #68, #32 ) ;
#24 = AXIS2_PLACEMENT_3D ( 'NONE', #215, #22, #236 ) ;
#25 = ADVANCED_FACE ( 'NONE', ( #144 ), #16, .T. ) ;
#26 = CIRCLE ( 'NONE', #55, 4.000000000000000000 ) ;
#27 = APPROVAL_DATE_TIME ( #154, #195 ) ;
#28 = CIRCLE ( 'NONE', #24, 4.000000000000000000 ) ;
#29 = PERSON_AND_ORGANIZATION_ROLE ( 'creator' ) ;
#30 = DIRECTION ( 'NONE',  ( -0.000000000000000000, -0.000000000000000000, -1.000000000000000000 ) ) ;
#31 = DIRECTION ( 'NONE',  ( 0.000000000000000000, 0.000000000000000000, 1.000000000000000000 ) ) ;
#32 = DIRECTION ( 'NONE',  ( -1.000000000000000000, 0.000000000000000000, 0.000000000000000000 ) ) ;
#33 = EDGE_LOOP ( 'NONE', ( #63, #136 ) ) ;
#34 = SECURITY_CLASSIFICATION ( '', '', #99 ) ;
#35 = LINE ( 'NONE', #95, #115 ) ;
#36 = CARTESIAN_POINT ( 'NONE',  ( -2.100000000000000089, 0.000000000000000000, 250.0000000000000000 ) ) ;
#37 = EDGE_CURVE ( 'NONE', #89, #84, #167, .T. ) ;
#38 = MECHANICAL_CONTEXT ( 'NONE', #90, 'mechanical' ) ;
#39 = DIRECTION ( 'NONE',  ( 0.000000000000000000, 0.000000000000000000, 1.000000000000000000 ) ) ;
#40 = CALENDAR_DATE ( 2023, 13, 2 ) ;
#41 = ADVANCED_FACE ( 'NONE', ( #230 ), #106, .F. ) ;
#42 = EDGE_LOOP ( 'NONE', ( #72, #184, #185, #86 ) ) ;
#43 = LOCAL_TIME ( 16, 5, 46.00000000000000000, #82 ) ;
#44 = DIRECTION ( 'NONE',  ( -1.000000000000000000, 0.000000000000000000, 0.000000000000000000 ) ) ;
#45 = CIRCLE ( 'NONE', #222, 4.000000000000000000 ) ;
#46 = CARTESIAN_POINT ( 'NONE',  ( 2.100000000000000089, 2.571758278209441957E-16, 250.0000000000000000 ) ) ;
#47 = DIRECTION ( 'NONE',  ( 1.000000000000000000, 0.000000000000000000, 0.000000000000000000 ) ) ;
#48 = CARTESIAN_POINT ( 'NONE',  ( 0.000000000000000000, 0.000000000000000000, 250.0000000000000000 ) ) ;
#49 = ORIENTED_EDGE ( 'NONE', *, *, #162, .T. ) ;
#50 = CC_DESIGN_APPROVAL ( #204, ( #34 ) ) ;
#51 = DIRECTION ( 'NONE',  ( -0.000000000000000000, -0.000000000000000000, -1.000000000000000000 ) ) ;
#52 = FACE_BOUND ( 'NONE', #104, .T. ) ;
#53 = EDGE_CURVE ( 'NONE', #87, #207, #45, .T. ) ;
#54 = CARTESIAN_POINT ( 'NONE',  ( -4.000000000000000000, 0.000000000000000000, 0.000000000000000000 ) ) ;
#55 = AXIS2_PLACEMENT_3D ( 'NONE', #146, #111, #76 ) ;
#56 = DIRECTION ( 'NONE',  ( 1.000000000000000000, 0.000000000000000000, 0.000000000000000000 ) ) ;
#57 = LINE ( 'NONE', #192, #205 ) ;
#58 = APPROVAL_ROLE ( '' ) ;
#59 = AXIS2_PLACEMENT_3D ( 'NONE', #92, #12, #191 ) ;
#60 = CALENDAR_DATE ( 2023, 13, 2 ) ;
#61 = PERSON_AND_ORGANIZATION_ROLE ( 'classification_officer' ) ;
#62 = EDGE_CURVE ( 'NONE', #254, #107, #209, .T. ) ;
#63 = ORIENTED_EDGE ( 'NONE', *, *, #255, .T. ) ;
#64 = DATE_AND_TIME ( #83, #65 ) ;
#65 = LOCAL_TIME ( 16, 5, 46.00000000000000000, #80 ) ;
#66 = DIRECTION ( 'NONE',  ( 0.000000000000000000, 0.000000000000000000, 1.000000000000000000 ) ) ;
#67 = ADVANCED_FACE ( 'NONE', ( #13 ), #161, .T. ) ;
#68 = DIRECTION ( 'NONE',  ( -0.000000000000000000, -0.000000000000000000, -1.000000000000000000 ) ) ;
#69 = CARTESIAN_POINT ( 'NONE',  ( 2.100000000000000089, 2.571758278209441957E-16, 250.0000000000000000 ) ) ;
#70 = MANIFOLD_SOLID_BREP ( 'Pøidat vysunutím3', #164 ) ;
#71 = DIRECTION ( 'NONE',  ( -1.000000000000000000, 0.000000000000000000, 0.000000000000000000 ) ) ;
#72 = ORIENTED_EDGE ( 'NONE', *, *, #53, .F. ) ;
#73 = CARTESIAN_POINT ( 'NONE',  ( -4.000000000000000000, 0.000000000000000000, 3.000000000000000000 ) ) ;
#74 = AXIS2_PLACEMENT_3D ( 'NONE', #133, #39, #56 ) ;
#75 = ADVANCED_BREP_SHAPE_REPRESENTATION ( 'de9d', ( #70, #101 ), #6 ) ;
#76 = DIRECTION ( 'NONE',  ( 1.000000000000000000, 0.000000000000000000, 0.000000000000000000 ) ) ;
#77 = DIRECTION ( 'NONE',  ( 0.000000000000000000, 0.000000000000000000, 1.000000000000000000 ) ) ;
#78 = CARTESIAN_POINT ( 'NONE',  ( 4.000000000000000000, 4.898587196589412829E-16, 0.000000000000000000 ) ) ;
#79 = CARTESIAN_POINT ( 'NONE',  ( -4.000000000000000000, 0.000000000000000000, 3.000000000000000000 ) ) ;
#80 = COORDINATED_UNIVERSAL_TIME_OFFSET ( 1, 0, .AHEAD. ) ;
#81 = ORIENTED_EDGE ( 'NONE', *, *, #37, .F. ) ;
#82 = COORDINATED_UNIVERSAL_TIME_OFFSET ( 1, 0, .AHEAD. ) ;
#83 = CALENDAR_DATE ( 2023, 13, 2 ) ;
#84 = VERTEX_POINT ( 'NONE', #145 ) ;
#85 = CALENDAR_DATE ( 2023, 13, 2 ) ;
#86 = ORIENTED_EDGE ( 'NONE', *, *, #162, .F. ) ;
#87 = VERTEX_POINT ( 'NONE', #226 ) ;
#88 = CARTESIAN_POINT ( 'NONE',  ( 0.000000000000000000, 0.000000000000000000, 250.0000000000000000 ) ) ;
#89 = VERTEX_POINT ( 'NONE', #46 ) ;
#90 = APPLICATION_CONTEXT ( 'configuration controlled 3d designs of mechanical parts and assemblies' ) ;
#91 = EDGE_CURVE ( 'NONE', #147, #84, #182, .T. ) ;
#92 = CARTESIAN_POINT ( 'NONE',  ( 0.000000000000000000, 0.000000000000000000, 250.0000000000000000 ) ) ;
#93 = ORGANIZATION ( 'NEURÈENÝ', 'NEURÈENÝ', '' ) ;
#94 = ORIENTED_EDGE ( 'NONE', *, *, #229, .F. ) ;
#95 = CARTESIAN_POINT ( 'NONE',  ( -2.100000000000000089, 0.000000000000000000, 250.0000000000000000 ) ) ;
#96 = PERSON_AND_ORGANIZATION_ROLE ( 'design_owner' ) ;
#97 =( NAMED_UNIT ( * ) SI_UNIT ( $, .STERADIAN. ) SOLID_ANGLE_UNIT ( ) );
#98 = LOCAL_TIME ( 16, 5, 46.00000000000000000, #117 ) ;
#99 = SECURITY_CLASSIFICATION_LEVEL ( 'unclassified' ) ;
#100 = ADVANCED_FACE ( 'NONE', ( #126 ), #212, .T. ) ;
#101 = AXIS2_PLACEMENT_3D ( 'NONE', #149, #2, #216 ) ;
#102 = APPLICATION_CONTEXT ( 'configuration controlled 3d designs of mechanical parts and assemblies' ) ;
#103 = ORIENTED_EDGE ( 'NONE', *, *, #255, .F. ) ;
#104 = EDGE_LOOP ( 'NONE', ( #201, #178 ) ) ;
#105 = EDGE_CURVE ( 'NONE', #107, #254, #26, .T. ) ;
#106 = PLANE ( 'NONE',  #122 ) ;
#107 = VERTEX_POINT ( 'NONE', #78 ) ;
#108 = CARTESIAN_POINT ( 'NONE',  ( 0.000000000000000000, 0.000000000000000000, 250.0000000000000000 ) ) ;
#109 = ORIENTED_EDGE ( 'NONE', *, *, #169, .F. ) ;
#110 = CIRCLE ( 'NONE', #227, 2.100000000000000089 ) ;
#111 = DIRECTION ( 'NONE',  ( 0.000000000000000000, 0.000000000000000000, 1.000000000000000000 ) ) ;
#112 =( LENGTH_UNIT ( ) NAMED_UNIT ( * ) SI_UNIT ( .MILLI., .METRE. ) );
#113 = ADVANCED_FACE ( 'NONE', ( #130 ), #5, .T. ) ;
#114 = AXIS2_PLACEMENT_3D ( 'NONE', #48, #208, #124 ) ;
#115 = VECTOR ( 'NONE', #51, 1000.000000000000000 ) ;
#116 = PERSON_AND_ORGANIZATION ( #193, #93 ) ;
#117 = COORDINATED_UNIVERSAL_TIME_OFFSET ( 1, 0, .AHEAD. ) ;
#118 = ORIENTED_EDGE ( 'NONE', *, *, #62, .F. ) ;
#119 = PRODUCT_DEFINITION_FORMATION_WITH_SPECIFIED_SOURCE ( 'LIBOVOLNÝ', '', #197, .NOT_KNOWN. ) ;
#120 = VERTEX_POINT ( 'NONE', #36 ) ;
#121 = ORIENTED_EDGE ( 'NONE', *, *, #105, .F. ) ;
#122 = AXIS2_PLACEMENT_3D ( 'NONE', #211, #127, #231 ) ;
#123 = VECTOR ( 'NONE', #198, 1000.000000000000000 ) ;
#124 = DIRECTION ( 'NONE',  ( 1.000000000000000000, 0.000000000000000000, 0.000000000000000000 ) ) ;
#125 = APPROVAL ( #157, 'NEURÈENÝ' ) ;
#126 = FACE_OUTER_BOUND ( 'NONE', #242, .T. ) ;
#127 = DIRECTION ( 'NONE',  ( 0.000000000000000000, 0.000000000000000000, 1.000000000000000000 ) ) ;
#128 = ORIENTED_EDGE ( 'NONE', *, *, #183, .T. ) ;
#129 = CC_DESIGN_DATE_AND_TIME_ASSIGNMENT ( #241, #139, ( #138 ) ) ;
#130 = FACE_OUTER_BOUND ( 'NONE', #213, .T. ) ;
#131 = APPLICATION_PROTOCOL_DEFINITION ( 'international standard', 'config_control_design', 1994, #90 ) ;
#132 = CARTESIAN_POINT ( 'NONE',  ( 0.000000000000000000, 0.000000000000000000, 3.000000000000000000 ) ) ;
#133 = CARTESIAN_POINT ( 'NONE',  ( 0.000000000000000000, 0.000000000000000000, 250.0000000000000000 ) ) ;
#134 = APPROVAL_ROLE ( '' ) ;
#135 = VECTOR ( 'NONE', #189, 1000.000000000000000 ) ;
#136 = ORIENTED_EDGE ( 'NONE', *, *, #53, .T. ) ;
#137 = PERSON_AND_ORGANIZATION_ROLE ( 'design_supplier' ) ;
#138 = PRODUCT_DEFINITION ( 'NEZNÁMÝ', '', #119, #3 ) ;
#139 = DATE_TIME_ROLE ( 'creation_date' ) ;
#140 = PERSON_AND_ORGANIZATION_ROLE ( 'creator' ) ;
#141 = CC_DESIGN_APPROVAL ( #195, ( #119 ) ) ;
#142 = CYLINDRICAL_SURFACE ( 'NONE', #174, 2.100000000000000089 ) ;
#143 = CC_DESIGN_DATE_AND_TIME_ASSIGNMENT ( #177, #221, ( #34 ) ) ;
#144 = FACE_OUTER_BOUND ( 'NONE', #190, .T. ) ;
#145 = CARTESIAN_POINT ( 'NONE',  ( 2.100000000000000089, 2.571758278209441957E-16, 3.000000000000000000 ) ) ;
#146 = CARTESIAN_POINT ( 'NONE',  ( 0.000000000000000000, 0.000000000000000000, 0.000000000000000000 ) ) ;
#147 = VERTEX_POINT ( 'NONE', #1 ) ;
#148 = PLANE ( 'NONE',  #247 ) ;
#149 = CARTESIAN_POINT ( 'NONE',  ( 0.000000000000000000, 0.000000000000000000, 0.000000000000000000 ) ) ;
#150 = CIRCLE ( 'NONE', #114, 2.100000000000000089 ) ;
#151 = LINE ( 'NONE', #79, #123 ) ;
#152 = APPROVAL_PERSON_ORGANIZATION ( #4, #125, #134 ) ;
#153 = CARTESIAN_POINT ( 'NONE',  ( 0.000000000000000000, 0.000000000000000000, 3.000000000000000000 ) ) ;
#154 = DATE_AND_TIME ( #40, #43 ) ;
#155 = EDGE_CURVE ( 'NONE', #89, #120, #165, .T. ) ;
#156 = ORIENTED_EDGE ( 'NONE', *, *, #229, .T. ) ;
#157 = APPROVAL_STATUS ( 'not_yet_approved' ) ;
#158 = APPROVAL_STATUS ( 'not_yet_approved' ) ;
#159 = APPROVAL_ROLE ( '' ) ;
#160 = CARTESIAN_POINT ( 'NONE',  ( 0.000000000000000000, 0.000000000000000000, 3.000000000000000000 ) ) ;
#161 = CYLINDRICAL_SURFACE ( 'NONE', #23, 4.000000000000000000 ) ;
#162 = EDGE_CURVE ( 'NONE', #207, #254, #151, .T. ) ;
#163 = ORIENTED_EDGE ( 'NONE', *, *, #155, .F. ) ;
#164 = CLOSED_SHELL ( 'NONE', ( #20, #67, #113, #238, #41, #100, #25 ) ) ;
#165 = CIRCLE ( 'NONE', #74, 2.100000000000000089 ) ;
#166 = DIRECTION ( 'NONE',  ( -0.000000000000000000, -0.000000000000000000, -1.000000000000000000 ) ) ;
#167 = LINE ( 'NONE', #69, #135 ) ;
#168 = PRODUCT_DEFINITION_SHAPE ( 'NONE', 'NONE',  #138 ) ;
#169 = EDGE_CURVE ( 'NONE', #87, #107, #57, .T. ) ;
#170 = DIRECTION ( 'NONE',  ( 1.000000000000000000, 0.000000000000000000, -0.000000000000000000 ) ) ;
#171 = DIRECTION ( 'NONE',  ( -0.000000000000000000, -0.000000000000000000, -1.000000000000000000 ) ) ;
#172 = CC_DESIGN_PERSON_AND_ORGANIZATION_ASSIGNMENT ( #206, #140, ( #138 ) ) ;
#173 = APPLICATION_PROTOCOL_DEFINITION ( 'international standard', 'config_control_design', 1994, #102 ) ;
#174 = AXIS2_PLACEMENT_3D ( 'NONE', #88, #30, #44 ) ;
#175 = CARTESIAN_POINT ( 'NONE',  ( 0.000000000000000000, 0.000000000000000000, 3.000000000000000000 ) ) ;
#176 = LOCAL_TIME ( 16, 5, 46.00000000000000000, #7 ) ;
#177 = DATE_AND_TIME ( #10, #176 ) ;
#178 = ORIENTED_EDGE ( 'NONE', *, *, #183, .F. ) ;
#179 = PERSON_AND_ORGANIZATION ( #193, #93 ) ;
#180 = EDGE_LOOP ( 'NONE', ( #163, #245, #128, #94 ) ) ;
#181 = PERSON_AND_ORGANIZATION ( #193, #93 ) ;
#182 = CIRCLE ( 'NONE', #251, 2.100000000000000089 ) ;
#183 = EDGE_CURVE ( 'NONE', #84, #147, #110, .T. ) ;
#184 = ORIENTED_EDGE ( 'NONE', *, *, #169, .T. ) ;
#185 = ORIENTED_EDGE ( 'NONE', *, *, #105, .T. ) ;
#186 = AXIS2_PLACEMENT_3D ( 'NONE', #132, #218, #194 ) ;
#187 = DIRECTION ( 'NONE',  ( 1.000000000000000000, 0.000000000000000000, 0.000000000000000000 ) ) ;
#188 = CC_DESIGN_PERSON_AND_ORGANIZATION_ASSIGNMENT ( #21, #96, ( #197 ) ) ;
#189 = DIRECTION ( 'NONE',  ( -0.000000000000000000, -0.000000000000000000, -1.000000000000000000 ) ) ;
#190 = EDGE_LOOP ( 'NONE', ( #224, #225 ) ) ;
#191 = DIRECTION ( 'NONE',  ( 1.000000000000000000, 0.000000000000000000, -0.000000000000000000 ) ) ;
#192 = CARTESIAN_POINT ( 'NONE',  ( 4.000000000000000000, 4.898587196589412829E-16, 3.000000000000000000 ) ) ;
#193 = PERSON ( 'NEURÈENÝ', 'NEURÈENÝ', 'NEURÈENÝ', ('NEURÈENÝ'), ('NEURÈENÝ'), ('NEURÈENÝ') ) ;
#194 = DIRECTION ( 'NONE',  ( -1.000000000000000000, 0.000000000000000000, 0.000000000000000000 ) ) ;
#195 = APPROVAL ( #158, 'NEURÈENÝ' ) ;
#196 = AXIS2_PLACEMENT_3D ( 'NONE', #248, #66, #187 ) ;
#197 = PRODUCT ( 'de9d', 'de9d', '', ( #38 ) ) ;
#198 = DIRECTION ( 'NONE',  ( -0.000000000000000000, -0.000000000000000000, -1.000000000000000000 ) ) ;
#199 = CC_DESIGN_SECURITY_CLASSIFICATION ( #34, ( #119 ) ) ;
#200 = PERSON_AND_ORGANIZATION ( #193, #93 ) ;
#201 = ORIENTED_EDGE ( 'NONE', *, *, #91, .F. ) ;
#202 = COORDINATED_UNIVERSAL_TIME_OFFSET ( 1, 0, .AHEAD. ) ;
#203 = EDGE_LOOP ( 'NONE', ( #118, #121 ) ) ;
#204 = APPROVAL ( #240, 'NEURÈENÝ' ) ;
#205 = VECTOR ( 'NONE', #171, 1000.000000000000000 ) ;
#206 = PERSON_AND_ORGANIZATION ( #193, #93 ) ;
#207 = VERTEX_POINT ( 'NONE', #73 ) ;
#208 = DIRECTION ( 'NONE',  ( 0.000000000000000000, 0.000000000000000000, 1.000000000000000000 ) ) ;
#209 = CIRCLE ( 'NONE', #196, 4.000000000000000000 ) ;
#210 = CC_DESIGN_PERSON_AND_ORGANIZATION_ASSIGNMENT ( #116, #137, ( #119 ) ) ;
#211 = CARTESIAN_POINT ( 'NONE',  ( 0.000000000000000000, 0.000000000000000000, 0.000000000000000000 ) ) ;
#212 = CYLINDRICAL_SURFACE ( 'NONE', #235, 2.100000000000000089 ) ;
#213 = EDGE_LOOP ( 'NONE', ( #109, #103, #49, #223 ) ) ;
#214 = APPROVAL_PERSON_ORGANIZATION ( #200, #204, #58 ) ;
#215 = CARTESIAN_POINT ( 'NONE',  ( 0.000000000000000000, 0.000000000000000000, 3.000000000000000000 ) ) ;
#216 = DIRECTION ( 'NONE',  ( 1.000000000000000000, 0.000000000000000000, 0.000000000000000000 ) ) ;
#217 = CC_DESIGN_APPROVAL ( #125, ( #138 ) ) ;
#218 = DIRECTION ( 'NONE',  ( -0.000000000000000000, -0.000000000000000000, -1.000000000000000000 ) ) ;
#219 = CC_DESIGN_PERSON_AND_ORGANIZATION_ASSIGNMENT ( #179, #29, ( #119 ) ) ;
#220 = APPROVAL_DATE_TIME ( #246, #204 ) ;
#221 = DATE_TIME_ROLE ( 'classification_date' ) ;
#222 = AXIS2_PLACEMENT_3D ( 'NONE', #160, #31, #253 ) ;
#223 = ORIENTED_EDGE ( 'NONE', *, *, #62, .T. ) ;
#224 = ORIENTED_EDGE ( 'NONE', *, *, #14, .T. ) ;
#225 = ORIENTED_EDGE ( 'NONE', *, *, #155, .T. ) ;
#226 = CARTESIAN_POINT ( 'NONE',  ( 4.000000000000000000, 4.898587196589412829E-16, 3.000000000000000000 ) ) ;
#227 = AXIS2_PLACEMENT_3D ( 'NONE', #175, #19, #239 ) ;
#228 = DIRECTION ( 'NONE',  ( 0.000000000000000000, 0.000000000000000000, 1.000000000000000000 ) ) ;
#229 = EDGE_CURVE ( 'NONE', #120, #147, #35, .T. ) ;
#230 = FACE_OUTER_BOUND ( 'NONE', #203, .T. ) ;
#231 = DIRECTION ( 'NONE',  ( 1.000000000000000000, 0.000000000000000000, -0.000000000000000000 ) ) ;
#232 =( NAMED_UNIT ( * ) PLANE_ANGLE_UNIT ( ) SI_UNIT ( $, .RADIAN. ) );
#233 = CC_DESIGN_PERSON_AND_ORGANIZATION_ASSIGNMENT ( #243, #61, ( #34 ) ) ;
#234 = FACE_OUTER_BOUND ( 'NONE', #33, .T. ) ;
#235 = AXIS2_PLACEMENT_3D ( 'NONE', #108, #166, #71 ) ;
#236 = DIRECTION ( 'NONE',  ( 1.000000000000000000, 0.000000000000000000, 0.000000000000000000 ) ) ;
#237 = UNCERTAINTY_MEASURE_WITH_UNIT (LENGTH_MEASURE( 1.000000000000000082E-05 ), #112, 'distance_accuracy_value', 'NONE');
#238 = ADVANCED_FACE ( 'NONE', ( #52, #234 ), #148, .T. ) ;
#239 = DIRECTION ( 'NONE',  ( 1.000000000000000000, 0.000000000000000000, 0.000000000000000000 ) ) ;
#240 = APPROVAL_STATUS ( 'not_yet_approved' ) ;
#241 = DATE_AND_TIME ( #60, #252 ) ;
#242 = EDGE_LOOP ( 'NONE', ( #81, #8, #156, #18 ) ) ;
#243 = PERSON_AND_ORGANIZATION ( #193, #93 ) ;
#244 = SHAPE_DEFINITION_REPRESENTATION ( #168, #75 ) ;
#245 = ORIENTED_EDGE ( 'NONE', *, *, #37, .T. ) ;
#246 = DATE_AND_TIME ( #85, #98 ) ;
#247 = AXIS2_PLACEMENT_3D ( 'NONE', #153, #77, #170 ) ;
#248 = CARTESIAN_POINT ( 'NONE',  ( 0.000000000000000000, 0.000000000000000000, 0.000000000000000000 ) ) ;
#249 = CARTESIAN_POINT ( 'NONE',  ( 0.000000000000000000, 0.000000000000000000, 3.000000000000000000 ) ) ;
#250 = FACE_OUTER_BOUND ( 'NONE', #180, .T. ) ;
#251 = AXIS2_PLACEMENT_3D ( 'NONE', #15, #228, #47 ) ;
#252 = LOCAL_TIME ( 16, 5, 46.00000000000000000, #202 ) ;
#253 = DIRECTION ( 'NONE',  ( 1.000000000000000000, 0.000000000000000000, 0.000000000000000000 ) ) ;
#254 = VERTEX_POINT ( 'NONE', #54 ) ;
#255 = EDGE_CURVE ( 'NONE', #207, #87, #28, .T. ) ;
ENDSEC;
END-ISO-10303-21;
