ISO-10303-21;
HEADER;
FILE_DESCRIPTION (( 'STEP AP203' ),
    '1' );
FILE_NAME ('bae0.STEP',
    '2023-02-13T09:22:40',
    ( '' ),
    ( '' ),
    'SwSTEP 2.0',
    'SolidWorks 2019',
    '' );
FILE_SCHEMA (( 'CONFIG_CONTROL_DESIGN' ));
ENDSEC;

DATA;
#1 = VECTOR ( 'NONE', #211, 1000.000000000000000 ) ;
#2 = CC_DESIGN_PERSON_AND_ORGANIZATION_ASSIGNMENT ( #9, #239, ( #136 ) ) ;
#3 = COORDINATED_UNIVERSAL_TIME_OFFSET ( 1, 0, .AHEAD. ) ;
#4 = SECURITY_CLASSIFICATION_LEVEL ( 'unclassified' ) ;
#5 = VERTEX_POINT ( 'NONE', #222 ) ;
#6 = APPLICATION_PROTOCOL_DEFINITION ( 'international standard', 'config_control_design', 1994, #46 ) ;
#7 = AXIS2_PLACEMENT_3D ( 'NONE', #122, #106, #125 ) ;
#8 = ORIENTED_EDGE ( 'NONE', *, *, #230, .T. ) ;
#9 = PERSON_AND_ORGANIZATION ( #116, #204 ) ;
#10 = EDGE_LOOP ( 'NONE', ( #188, #227, #12, #69 ) ) ;
#11 = AXIS2_PLACEMENT_3D ( 'NONE', #193, #16, #57 ) ;
#12 = ORIENTED_EDGE ( 'NONE', *, *, #224, .T. ) ;
#13 = CC_DESIGN_PERSON_AND_ORGANIZATION_ASSIGNMENT ( #42, #86, ( #145 ) ) ;
#14 = ORIENTED_EDGE ( 'NONE', *, *, #219, .F. ) ;
#15 = CARTESIAN_POINT ( 'NONE',  ( 0.000000000000000000, 0.000000000000000000, 400.0000000000000000 ) ) ;
#16 = DIRECTION ( 'NONE',  ( -0.000000000000000000, -0.000000000000000000, -1.000000000000000000 ) ) ;
#17 = ADVANCED_FACE ( 'NONE', ( #47 ), #31, .F. ) ;
#18 = DIRECTION ( 'NONE',  ( 1.000000000000000000, 0.000000000000000000, 0.000000000000000000 ) ) ;
#19 = CARTESIAN_POINT ( 'NONE',  ( 0.000000000000000000, 0.000000000000000000, 400.0000000000000000 ) ) ;
#20 = CIRCLE ( 'NONE', #167, 7.000000000000000888 ) ;
#21 = CARTESIAN_POINT ( 'NONE',  ( -7.000000000000000888, 0.000000000000000000, 400.0000000000000000 ) ) ;
#22 = VECTOR ( 'NONE', #236, 1000.000000000000000 ) ;
#23 = DATE_TIME_ROLE ( 'creation_date' ) ;
#24 = DATE_TIME_ROLE ( 'classification_date' ) ;
#25 = DIRECTION ( 'NONE',  ( 0.000000000000000000, 0.000000000000000000, 1.000000000000000000 ) ) ;
#26 =( LENGTH_UNIT ( ) NAMED_UNIT ( * ) SI_UNIT ( .MILLI., .METRE. ) );
#27 =( GEOMETRIC_REPRESENTATION_CONTEXT ( 3 ) GLOBAL_UNCERTAINTY_ASSIGNED_CONTEXT ( ( #87 ) ) GLOBAL_UNIT_ASSIGNED_CONTEXT ( ( #26, #108, #198 ) ) REPRESENTATION_CONTEXT ( 'NONE', 'WORKASPACE' ) );
#28 = EDGE_LOOP ( 'NONE', ( #94, #146 ) ) ;
#29 = VERTEX_POINT ( 'NONE', #189 ) ;
#30 = EDGE_CURVE ( 'NONE', #71, #29, #244, .T. ) ;
#31 = PLANE ( 'NONE',  #238 ) ;
#32 = ORIENTED_EDGE ( 'NONE', *, *, #133, .F. ) ;
#33 = DIRECTION ( 'NONE',  ( 0.000000000000000000, 0.000000000000000000, 1.000000000000000000 ) ) ;
#34 = APPLICATION_CONTEXT ( 'configuration controlled 3d designs of mechanical parts and assemblies' ) ;
#35 = CARTESIAN_POINT ( 'NONE',  ( 7.000000000000000888, 8.572527594031474176E-16, 400.0000000000000000 ) ) ;
#36 = DIRECTION ( 'NONE',  ( -0.000000000000000000, -0.000000000000000000, -1.000000000000000000 ) ) ;
#37 = CIRCLE ( 'NONE', #163, 7.000000000000000888 ) ;
#38 = LOCAL_TIME ( 10, 22, 40.00000000000000000, #3 ) ;
#39 = DIRECTION ( 'NONE',  ( 1.000000000000000000, 0.000000000000000000, 0.000000000000000000 ) ) ;
#40 = PLANE ( 'NONE',  #62 ) ;
#41 = EDGE_CURVE ( 'NONE', #89, #229, #85, .T. ) ;
#42 = PERSON_AND_ORGANIZATION ( #116, #204 ) ;
#43 = LOCAL_TIME ( 10, 22, 40.00000000000000000, #113 ) ;
#44 = DIRECTION ( 'NONE',  ( 1.000000000000000000, 0.000000000000000000, -0.000000000000000000 ) ) ;
#45 = APPROVAL_DATE_TIME ( #147, #99 ) ;
#46 = APPLICATION_CONTEXT ( 'configuration controlled 3d designs of mechanical parts and assemblies' ) ;
#47 = FACE_OUTER_BOUND ( 'NONE', #206, .T. ) ;
#48 = EDGE_CURVE ( 'NONE', #207, #92, #20, .T. ) ;
#49 = EDGE_LOOP ( 'NONE', ( #130, #32, #8, #173 ) ) ;
#50 = CARTESIAN_POINT ( 'NONE',  ( 0.000000000000000000, 0.000000000000000000, 7.000000000000000000 ) ) ;
#51 = CIRCLE ( 'NONE', #175, 7.000000000000000888 ) ;
#52 = ORIENTED_EDGE ( 'NONE', *, *, #224, .F. ) ;
#53 = CC_DESIGN_PERSON_AND_ORGANIZATION_ASSIGNMENT ( #124, #184, ( #70 ) ) ;
#54 = APPROVAL_DATE_TIME ( #131, #247 ) ;
#55 = AXIS2_PLACEMENT_3D ( 'NONE', #201, #220, #203 ) ;
#56 = CARTESIAN_POINT ( 'NONE',  ( 0.000000000000000000, 0.000000000000000000, 400.0000000000000000 ) ) ;
#57 = DIRECTION ( 'NONE',  ( -1.000000000000000000, 0.000000000000000000, 0.000000000000000000 ) ) ;
#58 = CARTESIAN_POINT ( 'NONE',  ( -11.00000000000000000, 0.000000000000000000, 0.000000000000000000 ) ) ;
#59 = CARTESIAN_POINT ( 'NONE',  ( 11.00000000000000000, 1.347111479062088405E-15, 7.000000000000000000 ) ) ;
#60 = CC_DESIGN_DATE_AND_TIME_ASSIGNMENT ( #88, #23, ( #136 ) ) ;
#61 = CYLINDRICAL_SURFACE ( 'NONE', #142, 7.000000000000000888 ) ;
#62 = AXIS2_PLACEMENT_3D ( 'NONE', #231, #254, #180 ) ;
#63 = CALENDAR_DATE ( 2023, 13, 2 ) ;
#64 = ORIENTED_EDGE ( 'NONE', *, *, #183, .F. ) ;
#65 = COORDINATED_UNIVERSAL_TIME_OFFSET ( 1, 0, .AHEAD. ) ;
#66 = ORIENTED_EDGE ( 'NONE', *, *, #183, .T. ) ;
#67 = APPROVAL_ROLE ( '' ) ;
#68 = APPROVAL ( #84, 'NEURÈENÝ' ) ;
#69 = ORIENTED_EDGE ( 'NONE', *, *, #154, .F. ) ;
#70 = PRODUCT_DEFINITION_FORMATION_WITH_SPECIFIED_SOURCE ( 'LIBOVOLNÝ', '', #255, .NOT_KNOWN. ) ;
#71 = VERTEX_POINT ( 'NONE', #59 ) ;
#72 = CALENDAR_DATE ( 2023, 13, 2 ) ;
#73 = FACE_BOUND ( 'NONE', #243, .T. ) ;
#74 = APPROVAL_ROLE ( '' ) ;
#75 = AXIS2_PLACEMENT_3D ( 'NONE', #248, #101, #100 ) ;
#76 = FACE_OUTER_BOUND ( 'NONE', #150, .T. ) ;
#77 = APPROVAL_STATUS ( 'not_yet_approved' ) ;
#78 = DIRECTION ( 'NONE',  ( 0.000000000000000000, 0.000000000000000000, 1.000000000000000000 ) ) ;
#79 = EDGE_CURVE ( 'NONE', #92, #207, #51, .T. ) ;
#80 = LINE ( 'NONE', #162, #22 ) ;
#81 = CARTESIAN_POINT ( 'NONE',  ( 0.000000000000000000, 0.000000000000000000, 7.000000000000000000 ) ) ;
#82 = CC_DESIGN_SECURITY_CLASSIFICATION ( #145, ( #70 ) ) ;
#83 = CIRCLE ( 'NONE', #75, 11.00000000000000000 ) ;
#84 = APPROVAL_STATUS ( 'not_yet_approved' ) ;
#85 = CIRCLE ( 'NONE', #129, 11.00000000000000000 ) ;
#86 = PERSON_AND_ORGANIZATION_ROLE ( 'classification_officer' ) ;
#87 = UNCERTAINTY_MEASURE_WITH_UNIT (LENGTH_MEASURE( 1.000000000000000082E-05 ), #26, 'distance_accuracy_value', 'NONE');
#88 = DATE_AND_TIME ( #63, #164 ) ;
#89 = VERTEX_POINT ( 'NONE', #58 ) ;
#90 = CC_DESIGN_DATE_AND_TIME_ASSIGNMENT ( #144, #24, ( #145 ) ) ;
#91 = CALENDAR_DATE ( 2023, 13, 2 ) ;
#92 = VERTEX_POINT ( 'NONE', #112 ) ;
#93 = DESIGN_CONTEXT ( 'detailed design', #46, 'design' ) ;
#94 = ORIENTED_EDGE ( 'NONE', *, *, #79, .T. ) ;
#95 = PRODUCT_DEFINITION_SHAPE ( 'NONE', 'NONE',  #136 ) ;
#96 = DIRECTION ( 'NONE',  ( 0.000000000000000000, 0.000000000000000000, 1.000000000000000000 ) ) ;
#97 = CYLINDRICAL_SURFACE ( 'NONE', #123, 11.00000000000000000 ) ;
#98 = DIRECTION ( 'NONE',  ( -1.000000000000000000, 0.000000000000000000, 0.000000000000000000 ) ) ;
#99 = APPROVAL ( #223, 'NEURÈENÝ' ) ;
#100 = DIRECTION ( 'NONE',  ( 1.000000000000000000, 0.000000000000000000, 0.000000000000000000 ) ) ;
#101 = DIRECTION ( 'NONE',  ( 0.000000000000000000, 0.000000000000000000, 1.000000000000000000 ) ) ;
#102 = DATE_AND_TIME ( #91, #110 ) ;
#103 = ADVANCED_FACE ( 'NONE', ( #76 ), #140, .T. ) ;
#104 = CALENDAR_DATE ( 2023, 13, 2 ) ;
#105 = PERSON_AND_ORGANIZATION ( #116, #204 ) ;
#106 = DIRECTION ( 'NONE',  ( 0.000000000000000000, 0.000000000000000000, 1.000000000000000000 ) ) ;
#107 = DIRECTION ( 'NONE',  ( 1.000000000000000000, 0.000000000000000000, 0.000000000000000000 ) ) ;
#108 =( NAMED_UNIT ( * ) PLANE_ANGLE_UNIT ( ) SI_UNIT ( $, .RADIAN. ) );
#109 = CARTESIAN_POINT ( 'NONE',  ( 0.000000000000000000, 0.000000000000000000, 0.000000000000000000 ) ) ;
#110 = LOCAL_TIME ( 10, 22, 40.00000000000000000, #65 ) ;
#111 = EDGE_LOOP ( 'NONE', ( #14, #208, #176, #190 ) ) ;
#112 = CARTESIAN_POINT ( 'NONE',  ( -7.000000000000000888, 0.000000000000000000, 400.0000000000000000 ) ) ;
#113 = COORDINATED_UNIVERSAL_TIME_OFFSET ( 1, 0, .AHEAD. ) ;
#114 = DIRECTION ( 'NONE',  ( -0.000000000000000000, -0.000000000000000000, -1.000000000000000000 ) ) ;
#115 = AXIS2_PLACEMENT_3D ( 'NONE', #81, #165, #18 ) ;
#116 = PERSON ( 'NEURÈENÝ', 'NEURÈENÝ', 'NEURÈENÝ', ('NEURÈENÝ'), ('NEURÈENÝ'), ('NEURÈENÝ') ) ;
#117 = DIRECTION ( 'NONE',  ( 1.000000000000000000, 0.000000000000000000, 0.000000000000000000 ) ) ;
#118 = CARTESIAN_POINT ( 'NONE',  ( 0.000000000000000000, 0.000000000000000000, 7.000000000000000000 ) ) ;
#119 = CC_DESIGN_PERSON_AND_ORGANIZATION_ASSIGNMENT ( #182, #240, ( #70 ) ) ;
#120 = CIRCLE ( 'NONE', #235, 11.00000000000000000 ) ;
#121 = ADVANCED_BREP_SHAPE_REPRESENTATION ( 'bae0', ( #152, #7 ), #27 ) ;
#122 = CARTESIAN_POINT ( 'NONE',  ( 0.000000000000000000, 0.000000000000000000, 0.000000000000000000 ) ) ;
#123 = AXIS2_PLACEMENT_3D ( 'NONE', #137, #160, #194 ) ;
#124 = PERSON_AND_ORGANIZATION ( #116, #204 ) ;
#125 = DIRECTION ( 'NONE',  ( 1.000000000000000000, 0.000000000000000000, 0.000000000000000000 ) ) ;
#126 = PLANE ( 'NONE',  #55 ) ;
#127 = ADVANCED_FACE ( 'NONE', ( #159 ), #97, .T. ) ;
#128 = DIRECTION ( 'NONE',  ( 0.000000000000000000, 0.000000000000000000, 1.000000000000000000 ) ) ;
#129 = AXIS2_PLACEMENT_3D ( 'NONE', #186, #33, #237 ) ;
#130 = ORIENTED_EDGE ( 'NONE', *, *, #215, .F. ) ;
#131 = DATE_AND_TIME ( #72, #43 ) ;
#132 = VERTEX_POINT ( 'NONE', #181 ) ;
#133 = EDGE_CURVE ( 'NONE', #29, #71, #120, .T. ) ;
#134 = ORIENTED_EDGE ( 'NONE', *, *, #212, .F. ) ;
#135 = LINE ( 'NONE', #35, #151 ) ;
#136 = PRODUCT_DEFINITION ( 'NEZNÁMÝ', '', #70, #93 ) ;
#137 = CARTESIAN_POINT ( 'NONE',  ( 0.000000000000000000, 0.000000000000000000, 7.000000000000000000 ) ) ;
#138 = AXIS2_PLACEMENT_3D ( 'NONE', #50, #128, #107 ) ;
#139 = DIRECTION ( 'NONE',  ( 0.000000000000000000, 0.000000000000000000, 1.000000000000000000 ) ) ;
#140 = CYLINDRICAL_SURFACE ( 'NONE', #11, 11.00000000000000000 ) ;
#141 = LINE ( 'NONE', #192, #1 ) ;
#142 = AXIS2_PLACEMENT_3D ( 'NONE', #15, #209, #98 ) ;
#143 = ADVANCED_FACE ( 'NONE', ( #197 ), #178, .T. ) ;
#144 = DATE_AND_TIME ( #104, #38 ) ;
#145 = SECURITY_CLASSIFICATION ( '', '', #4 ) ;
#146 = ORIENTED_EDGE ( 'NONE', *, *, #48, .T. ) ;
#147 = DATE_AND_TIME ( #221, #245 ) ;
#148 = ORIENTED_EDGE ( 'NONE', *, *, #230, .F. ) ;
#149 = FACE_OUTER_BOUND ( 'NONE', #28, .T. ) ;
#150 = EDGE_LOOP ( 'NONE', ( #246, #202, #66, #148 ) ) ;
#151 = VECTOR ( 'NONE', #36, 1000.000000000000000 ) ;
#152 = MANIFOLD_SOLID_BREP ( 'Pøidat vysunutím3', #161 ) ;
#153 = APPROVAL_PERSON_ORGANIZATION ( #217, #68, #242 ) ;
#154 = EDGE_CURVE ( 'NONE', #92, #5, #234, .T. ) ;
#155 = ORIENTED_EDGE ( 'NONE', *, *, #30, .T. ) ;
#156 = DIRECTION ( 'NONE',  ( 1.000000000000000000, 0.000000000000000000, 0.000000000000000000 ) ) ;
#157 = ADVANCED_FACE ( 'NONE', ( #210 ), #61, .T. ) ;
#158 = CC_DESIGN_APPROVAL ( #68, ( #70 ) ) ;
#159 = FACE_OUTER_BOUND ( 'NONE', #49, .T. ) ;
#160 = DIRECTION ( 'NONE',  ( -0.000000000000000000, -0.000000000000000000, -1.000000000000000000 ) ) ;
#161 = CLOSED_SHELL ( 'NONE', ( #143, #103, #127, #191, #17, #157, #233 ) ) ;
#162 = CARTESIAN_POINT ( 'NONE',  ( -11.00000000000000000, 0.000000000000000000, 7.000000000000000000 ) ) ;
#163 = AXIS2_PLACEMENT_3D ( 'NONE', #179, #78, #117 ) ;
#164 = LOCAL_TIME ( 10, 22, 40.00000000000000000, #200 ) ;
#165 = DIRECTION ( 'NONE',  ( 0.000000000000000000, 0.000000000000000000, 1.000000000000000000 ) ) ;
#166 = COORDINATED_UNIVERSAL_TIME_OFFSET ( 1, 0, .AHEAD. ) ;
#167 = AXIS2_PLACEMENT_3D ( 'NONE', #232, #96, #39 ) ;
#168 = APPROVAL_DATE_TIME ( #102, #68 ) ;
#169 = PERSON_AND_ORGANIZATION ( #116, #204 ) ;
#170 = ORIENTED_EDGE ( 'NONE', *, *, #133, .T. ) ;
#171 = CC_DESIGN_APPROVAL ( #247, ( #145 ) ) ;
#172 = MECHANICAL_CONTEXT ( 'NONE', #34, 'mechanical' ) ;
#173 = ORIENTED_EDGE ( 'NONE', *, *, #41, .T. ) ;
#174 = ORIENTED_EDGE ( 'NONE', *, *, #41, .F. ) ;
#175 = AXIS2_PLACEMENT_3D ( 'NONE', #19, #214, #156 ) ;
#176 = ORIENTED_EDGE ( 'NONE', *, *, #154, .T. ) ;
#177 = DIRECTION ( 'NONE',  ( -1.000000000000000000, 0.000000000000000000, 0.000000000000000000 ) ) ;
#178 = CYLINDRICAL_SURFACE ( 'NONE', #253, 7.000000000000000888 ) ;
#179 = CARTESIAN_POINT ( 'NONE',  ( 0.000000000000000000, 0.000000000000000000, 7.000000000000000000 ) ) ;
#180 = DIRECTION ( 'NONE',  ( 1.000000000000000000, 0.000000000000000000, -0.000000000000000000 ) ) ;
#181 = CARTESIAN_POINT ( 'NONE',  ( 7.000000000000000888, 8.572527594031474176E-16, 7.000000000000000000 ) ) ;
#182 = PERSON_AND_ORGANIZATION ( #116, #204 ) ;
#183 = EDGE_CURVE ( 'NONE', #229, #89, #83, .T. ) ;
#184 = PERSON_AND_ORGANIZATION_ROLE ( 'creator' ) ;
#185 = APPLICATION_PROTOCOL_DEFINITION ( 'international standard', 'config_control_design', 1994, #34 ) ;
#186 = CARTESIAN_POINT ( 'NONE',  ( 0.000000000000000000, 0.000000000000000000, 0.000000000000000000 ) ) ;
#187 = PERSON_AND_ORGANIZATION_ROLE ( 'design_owner' ) ;
#188 = ORIENTED_EDGE ( 'NONE', *, *, #48, .F. ) ;
#189 = CARTESIAN_POINT ( 'NONE',  ( -11.00000000000000000, 0.000000000000000000, 7.000000000000000000 ) ) ;
#190 = ORIENTED_EDGE ( 'NONE', *, *, #212, .T. ) ;
#191 = ADVANCED_FACE ( 'NONE', ( #73, #251 ), #40, .T. ) ;
#192 = CARTESIAN_POINT ( 'NONE',  ( 11.00000000000000000, 1.347111479062088405E-15, 7.000000000000000000 ) ) ;
#193 = CARTESIAN_POINT ( 'NONE',  ( 0.000000000000000000, 0.000000000000000000, 7.000000000000000000 ) ) ;
#194 = DIRECTION ( 'NONE',  ( -1.000000000000000000, 0.000000000000000000, 0.000000000000000000 ) ) ;
#195 = CARTESIAN_POINT ( 'NONE',  ( 11.00000000000000000, 1.347111479062088405E-15, 0.000000000000000000 ) ) ;
#196 = CC_DESIGN_PERSON_AND_ORGANIZATION_ASSIGNMENT ( #105, #187, ( #255 ) ) ;
#197 = FACE_OUTER_BOUND ( 'NONE', #10, .T. ) ;
#198 =( NAMED_UNIT ( * ) SI_UNIT ( $, .STERADIAN. ) SOLID_ANGLE_UNIT ( ) );
#199 = PERSON_AND_ORGANIZATION ( #116, #204 ) ;
#200 = COORDINATED_UNIVERSAL_TIME_OFFSET ( 1, 0, .AHEAD. ) ;
#201 = CARTESIAN_POINT ( 'NONE',  ( 0.000000000000000000, 0.000000000000000000, 400.0000000000000000 ) ) ;
#202 = ORIENTED_EDGE ( 'NONE', *, *, #215, .T. ) ;
#203 = DIRECTION ( 'NONE',  ( 1.000000000000000000, 0.000000000000000000, -0.000000000000000000 ) ) ;
#204 = ORGANIZATION ( 'NEURÈENÝ', 'NEURÈENÝ', '' ) ;
#205 = EDGE_LOOP ( 'NONE', ( #170, #155 ) ) ;
#206 = EDGE_LOOP ( 'NONE', ( #174, #64 ) ) ;
#207 = VERTEX_POINT ( 'NONE', #252 ) ;
#208 = ORIENTED_EDGE ( 'NONE', *, *, #79, .F. ) ;
#209 = DIRECTION ( 'NONE',  ( -0.000000000000000000, -0.000000000000000000, -1.000000000000000000 ) ) ;
#210 = FACE_OUTER_BOUND ( 'NONE', #111, .T. ) ;
#211 = DIRECTION ( 'NONE',  ( -0.000000000000000000, -0.000000000000000000, -1.000000000000000000 ) ) ;
#212 = EDGE_CURVE ( 'NONE', #5, #132, #225, .T. ) ;
#213 = DIRECTION ( 'NONE',  ( 1.000000000000000000, 0.000000000000000000, 0.000000000000000000 ) ) ;
#214 = DIRECTION ( 'NONE',  ( 0.000000000000000000, 0.000000000000000000, 1.000000000000000000 ) ) ;
#215 = EDGE_CURVE ( 'NONE', #71, #229, #141, .T. ) ;
#216 = APPROVAL_PERSON_ORGANIZATION ( #169, #247, #74 ) ;
#217 = PERSON_AND_ORGANIZATION ( #116, #204 ) ;
#218 = VECTOR ( 'NONE', #249, 1000.000000000000000 ) ;
#219 = EDGE_CURVE ( 'NONE', #207, #132, #135, .T. ) ;
#220 = DIRECTION ( 'NONE',  ( 0.000000000000000000, 0.000000000000000000, 1.000000000000000000 ) ) ;
#221 = CALENDAR_DATE ( 2023, 13, 2 ) ;
#222 = CARTESIAN_POINT ( 'NONE',  ( -7.000000000000000888, 0.000000000000000000, 7.000000000000000000 ) ) ;
#223 = APPROVAL_STATUS ( 'not_yet_approved' ) ;
#224 = EDGE_CURVE ( 'NONE', #132, #5, #37, .T. ) ;
#225 = CIRCLE ( 'NONE', #115, 7.000000000000000888 ) ;
#226 = CC_DESIGN_APPROVAL ( #99, ( #136 ) ) ;
#227 = ORIENTED_EDGE ( 'NONE', *, *, #219, .T. ) ;
#228 = SHAPE_DEFINITION_REPRESENTATION ( #95, #121 ) ;
#229 = VERTEX_POINT ( 'NONE', #195 ) ;
#230 = EDGE_CURVE ( 'NONE', #29, #89, #80, .T. ) ;
#231 = CARTESIAN_POINT ( 'NONE',  ( 0.000000000000000000, 0.000000000000000000, 7.000000000000000000 ) ) ;
#232 = CARTESIAN_POINT ( 'NONE',  ( 0.000000000000000000, 0.000000000000000000, 400.0000000000000000 ) ) ;
#233 = ADVANCED_FACE ( 'NONE', ( #149 ), #126, .T. ) ;
#234 = LINE ( 'NONE', #21, #218 ) ;
#235 = AXIS2_PLACEMENT_3D ( 'NONE', #118, #139, #213 ) ;
#236 = DIRECTION ( 'NONE',  ( -0.000000000000000000, -0.000000000000000000, -1.000000000000000000 ) ) ;
#237 = DIRECTION ( 'NONE',  ( 1.000000000000000000, 0.000000000000000000, 0.000000000000000000 ) ) ;
#238 = AXIS2_PLACEMENT_3D ( 'NONE', #109, #25, #44 ) ;
#239 = PERSON_AND_ORGANIZATION_ROLE ( 'creator' ) ;
#240 = PERSON_AND_ORGANIZATION_ROLE ( 'design_supplier' ) ;
#241 = APPROVAL_PERSON_ORGANIZATION ( #199, #99, #67 ) ;
#242 = APPROVAL_ROLE ( '' ) ;
#243 = EDGE_LOOP ( 'NONE', ( #134, #52 ) ) ;
#244 = CIRCLE ( 'NONE', #138, 11.00000000000000000 ) ;
#245 = LOCAL_TIME ( 10, 22, 40.00000000000000000, #166 ) ;
#246 = ORIENTED_EDGE ( 'NONE', *, *, #30, .F. ) ;
#247 = APPROVAL ( #77, 'NEURÈENÝ' ) ;
#248 = CARTESIAN_POINT ( 'NONE',  ( 0.000000000000000000, 0.000000000000000000, 0.000000000000000000 ) ) ;
#249 = DIRECTION ( 'NONE',  ( -0.000000000000000000, -0.000000000000000000, -1.000000000000000000 ) ) ;
#250 = PRODUCT_RELATED_PRODUCT_CATEGORY ( 'detail', '', ( #255 ) ) ;
#251 = FACE_OUTER_BOUND ( 'NONE', #205, .T. ) ;
#252 = CARTESIAN_POINT ( 'NONE',  ( 7.000000000000000888, 8.572527594031474176E-16, 400.0000000000000000 ) ) ;
#253 = AXIS2_PLACEMENT_3D ( 'NONE', #56, #114, #177 ) ;
#254 = DIRECTION ( 'NONE',  ( 0.000000000000000000, 0.000000000000000000, 1.000000000000000000 ) ) ;
#255 = PRODUCT ( 'bae0', 'bae0', '', ( #172 ) ) ;
ENDSEC;
END-ISO-10303-21;
