ISO-10303-21;
HEADER;
FILE_DESCRIPTION (( 'STEP AP203' ),
    '1' );
FILE_NAME ('e8b0.STEP',
    '2023-02-13T14:04:27',
    ( '' ),
    ( '' ),
    'SwSTEP 2.0',
    'SolidWorks 2019',
    '' );
FILE_SCHEMA (( 'CONFIG_CONTROL_DESIGN' ));
ENDSEC;

DATA;
#1 = CARTESIAN_POINT ( 'NONE',  ( 0.000000000000000000, 0.000000000000000000, 5.000000000000000000 ) ) ;
#2 = APPLICATION_CONTEXT ( 'configuration controlled 3d designs of mechanical parts and assemblies' ) ;
#3 = FACE_OUTER_BOUND ( 'NONE', #45, .T. ) ;
#4 = DESIGN_CONTEXT ( 'detailed design', #2, 'design' ) ;
#5 = APPROVAL_PERSON_ORGANIZATION ( #196, #55, #143 ) ;
#6 = EDGE_CURVE ( 'NONE', #153, #29, #245, .T. ) ;
#7 = CC_DESIGN_PERSON_AND_ORGANIZATION_ASSIGNMENT ( #46, #163, ( #10 ) ) ;
#8 = ORIENTED_EDGE ( 'NONE', *, *, #116, .T. ) ;
#9 = AXIS2_PLACEMENT_3D ( 'NONE', #35, #123, #168 ) ;
#10 = PRODUCT_DEFINITION_FORMATION_WITH_SPECIFIED_SOURCE ( 'LIBOVOLNÝ', '', #197, .NOT_KNOWN. ) ;
#11 = DATE_TIME_ROLE ( 'classification_date' ) ;
#12 = EDGE_CURVE ( 'NONE', #29, #137, #60, .T. ) ;
#13 = AXIS2_PLACEMENT_3D ( 'NONE', #133, #239, #216 ) ;
#14 = SECURITY_CLASSIFICATION_LEVEL ( 'unclassified' ) ;
#15 = CARTESIAN_POINT ( 'NONE',  ( 0.000000000000000000, 0.000000000000000000, 0.000000000000000000 ) ) ;
#16 = CC_DESIGN_APPROVAL ( #160, ( #78 ) ) ;
#17 = DIRECTION ( 'NONE',  ( -0.000000000000000000, -0.000000000000000000, -1.000000000000000000 ) ) ;
#18 = VECTOR ( 'NONE', #21, 1000.000000000000000 ) ;
#19 = AXIS2_PLACEMENT_3D ( 'NONE', #43, #138, #47 ) ;
#20 = LINE ( 'NONE', #154, #18 ) ;
#21 = DIRECTION ( 'NONE',  ( -0.000000000000000000, -0.000000000000000000, -1.000000000000000000 ) ) ;
#22 = ADVANCED_BREP_SHAPE_REPRESENTATION ( 'e8b0', ( #232, #200 ), #105 ) ;
#23 = CARTESIAN_POINT ( 'NONE',  ( 0.000000000000000000, 0.000000000000000000, 5.000000000000000000 ) ) ;
#24 = CARTESIAN_POINT ( 'NONE',  ( -3.250000000000000444, 0.000000000000000000, 5.000000000000000000 ) ) ;
#25 = FACE_OUTER_BOUND ( 'NONE', #52, .T. ) ;
#26 = DATE_AND_TIME ( #241, #33 ) ;
#27 = APPROVAL_ROLE ( '' ) ;
#28 = CC_DESIGN_DATE_AND_TIME_ASSIGNMENT ( #230, #136, ( #215 ) ) ;
#29 = VERTEX_POINT ( 'NONE', #24 ) ;
#30 = EDGE_CURVE ( 'NONE', #227, #156, #199, .T. ) ;
#31 = DATE_AND_TIME ( #208, #207 ) ;
#32 = ORIENTED_EDGE ( 'NONE', *, *, #186, .F. ) ;
#33 = LOCAL_TIME ( 15, 4, 27.00000000000000000, #120 ) ;
#34 = PERSON ( 'NEURÈENÝ', 'NEURÈENÝ', 'NEURÈENÝ', ('NEURÈENÝ'), ('NEURÈENÝ'), ('NEURÈENÝ') ) ;
#35 = CARTESIAN_POINT ( 'NONE',  ( 0.000000000000000000, 0.000000000000000000, 160.0000000000000000 ) ) ;
#36 = DIRECTION ( 'NONE',  ( 0.000000000000000000, 0.000000000000000000, 1.000000000000000000 ) ) ;
#37 = CARTESIAN_POINT ( 'NONE',  ( 6.000000000000000888, 7.347880794884120722E-16, 0.000000000000000000 ) ) ;
#38 = CARTESIAN_POINT ( 'NONE',  ( 0.000000000000000000, 0.000000000000000000, 160.0000000000000000 ) ) ;
#39 = FACE_BOUND ( 'NONE', #164, .T. ) ;
#40 = AXIS2_PLACEMENT_3D ( 'NONE', #108, #189, #58 ) ;
#41 = CIRCLE ( 'NONE', #240, 3.250000000000000444 ) ;
#42 = FACE_OUTER_BOUND ( 'NONE', #231, .T. ) ;
#43 = CARTESIAN_POINT ( 'NONE',  ( 0.000000000000000000, 0.000000000000000000, 160.0000000000000000 ) ) ;
#44 = AXIS2_PLACEMENT_3D ( 'NONE', #1, #86, #74 ) ;
#45 = EDGE_LOOP ( 'NONE', ( #218, #112 ) ) ;
#46 = PERSON_AND_ORGANIZATION ( #34, #48 ) ;
#47 = DIRECTION ( 'NONE',  ( -1.000000000000000000, 0.000000000000000000, 0.000000000000000000 ) ) ;
#48 = ORGANIZATION ( 'NEURÈENÝ', 'NEURÈENÝ', '' ) ;
#49 = CALENDAR_DATE ( 2023, 13, 2 ) ;
#50 = ADVANCED_FACE ( 'NONE', ( #39, #91 ), #59, .T. ) ;
#51 = DATE_AND_TIME ( #121, #211 ) ;
#52 = EDGE_LOOP ( 'NONE', ( #129, #65, #8, #100 ) ) ;
#53 = CALENDAR_DATE ( 2023, 13, 2 ) ;
#54 = AXIS2_PLACEMENT_3D ( 'NONE', #38, #61, #187 ) ;
#55 = APPROVAL ( #246, 'NEURÈENÝ' ) ;
#56 = DIRECTION ( 'NONE',  ( 0.000000000000000000, 0.000000000000000000, 1.000000000000000000 ) ) ;
#57 = PLANE ( 'NONE',  #9 ) ;
#58 = DIRECTION ( 'NONE',  ( 1.000000000000000000, 0.000000000000000000, 0.000000000000000000 ) ) ;
#59 = PLANE ( 'NONE',  #181 ) ;
#60 = CIRCLE ( 'NONE', #94, 3.250000000000000444 ) ;
#61 = DIRECTION ( 'NONE',  ( -0.000000000000000000, -0.000000000000000000, -1.000000000000000000 ) ) ;
#62 = ADVANCED_FACE ( 'NONE', ( #89 ), #126, .T. ) ;
#63 = CARTESIAN_POINT ( 'NONE',  ( 0.000000000000000000, 0.000000000000000000, 5.000000000000000000 ) ) ;
#64 = PERSON_AND_ORGANIZATION_ROLE ( 'design_owner' ) ;
#65 = ORIENTED_EDGE ( 'NONE', *, *, #210, .F. ) ;
#66 = EDGE_CURVE ( 'NONE', #137, #29, #184, .T. ) ;
#67 = ORIENTED_EDGE ( 'NONE', *, *, #79, .F. ) ;
#68 = DIRECTION ( 'NONE',  ( -0.000000000000000000, -0.000000000000000000, -1.000000000000000000 ) ) ;
#69 = ORIENTED_EDGE ( 'NONE', *, *, #30, .F. ) ;
#70 = SHAPE_DEFINITION_REPRESENTATION ( #110, #22 ) ;
#71 = CARTESIAN_POINT ( 'NONE',  ( 0.000000000000000000, 0.000000000000000000, 160.0000000000000000 ) ) ;
#72 = EDGE_CURVE ( 'NONE', #178, #166, #204, .T. ) ;
#73 = PERSON_AND_ORGANIZATION_ROLE ( 'creator' ) ;
#74 = DIRECTION ( 'NONE',  ( -1.000000000000000000, 0.000000000000000000, 0.000000000000000000 ) ) ;
#75 = CC_DESIGN_PERSON_AND_ORGANIZATION_ASSIGNMENT ( #165, #84, ( #78 ) ) ;
#76 = DIRECTION ( 'NONE',  ( 1.000000000000000000, 0.000000000000000000, -0.000000000000000000 ) ) ;
#77 = CIRCLE ( 'NONE', #223, 6.000000000000000888 ) ;
#78 = SECURITY_CLASSIFICATION ( '', '', #14 ) ;
#79 = EDGE_CURVE ( 'NONE', #156, #227, #77, .T. ) ;
#80 = VECTOR ( 'NONE', #253, 1000.000000000000000 ) ;
#81 = VECTOR ( 'NONE', #17, 1000.000000000000000 ) ;
#82 = ORIENTED_EDGE ( 'NONE', *, *, #116, .F. ) ;
#83 = PERSON_AND_ORGANIZATION ( #34, #48 ) ;
#84 = PERSON_AND_ORGANIZATION_ROLE ( 'classification_officer' ) ;
#85 = EDGE_CURVE ( 'NONE', #178, #156, #124, .T. ) ;
#86 = DIRECTION ( 'NONE',  ( -0.000000000000000000, -0.000000000000000000, -1.000000000000000000 ) ) ;
#87 = CARTESIAN_POINT ( 'NONE',  ( 0.000000000000000000, 0.000000000000000000, 0.000000000000000000 ) ) ;
#88 = CARTESIAN_POINT ( 'NONE',  ( 0.000000000000000000, 0.000000000000000000, 160.0000000000000000 ) ) ;
#89 = FACE_OUTER_BOUND ( 'NONE', #228, .T. ) ;
#90 = ADVANCED_FACE ( 'NONE', ( #3 ), #57, .T. ) ;
#91 = FACE_OUTER_BOUND ( 'NONE', #115, .T. ) ;
#92 = DIRECTION ( 'NONE',  ( 0.000000000000000000, 0.000000000000000000, 1.000000000000000000 ) ) ;
#93 = PLANE ( 'NONE',  #188 ) ;
#94 = AXIS2_PLACEMENT_3D ( 'NONE', #101, #149, #171 ) ;
#95 = ADVANCED_FACE ( 'NONE', ( #214 ), #190, .T. ) ;
#96 = VECTOR ( 'NONE', #68, 1000.000000000000000 ) ;
#97 = EDGE_CURVE ( 'NONE', #247, #137, #20, .T. ) ;
#98 = PERSON_AND_ORGANIZATION ( #34, #48 ) ;
#99 = ORIENTED_EDGE ( 'NONE', *, *, #66, .T. ) ;
#100 = ORIENTED_EDGE ( 'NONE', *, *, #30, .T. ) ;
#101 = CARTESIAN_POINT ( 'NONE',  ( 0.000000000000000000, 0.000000000000000000, 5.000000000000000000 ) ) ;
#102 = APPROVAL_ROLE ( '' ) ;
#103 = CLOSED_SHELL ( 'NONE', ( #95, #62, #150, #50, #104, #135, #90 ) ) ;
#104 = ADVANCED_FACE ( 'NONE', ( #172 ), #93, .F. ) ;
#105 =( GEOMETRIC_REPRESENTATION_CONTEXT ( 3 ) GLOBAL_UNCERTAINTY_ASSIGNED_CONTEXT ( ( #134 ) ) GLOBAL_UNIT_ASSIGNED_CONTEXT ( ( #244, #183, #157 ) ) REPRESENTATION_CONTEXT ( 'NONE', 'WORKASPACE' ) );
#106 = DIRECTION ( 'NONE',  ( 1.000000000000000000, 0.000000000000000000, 0.000000000000000000 ) ) ;
#107 = CARTESIAN_POINT ( 'NONE',  ( -6.000000000000000888, 0.000000000000000000, 5.000000000000000000 ) ) ;
#108 = CARTESIAN_POINT ( 'NONE',  ( 0.000000000000000000, 0.000000000000000000, 0.000000000000000000 ) ) ;
#109 = CC_DESIGN_PERSON_AND_ORGANIZATION_ASSIGNMENT ( #83, #73, ( #10 ) ) ;
#110 = PRODUCT_DEFINITION_SHAPE ( 'NONE', 'NONE',  #215 ) ;
#111 = CARTESIAN_POINT ( 'NONE',  ( -6.000000000000000888, 0.000000000000000000, 5.000000000000000000 ) ) ;
#112 = ORIENTED_EDGE ( 'NONE', *, *, #132, .T. ) ;
#113 = CIRCLE ( 'NONE', #182, 3.250000000000000444 ) ;
#114 = CC_DESIGN_APPROVAL ( #198, ( #10 ) ) ;
#115 = EDGE_LOOP ( 'NONE', ( #242, #225 ) ) ;
#116 = EDGE_CURVE ( 'NONE', #166, #227, #217, .T. ) ;
#117 = AXIS2_PLACEMENT_3D ( 'NONE', #23, #92, #174 ) ;
#118 = APPROVAL_STATUS ( 'not_yet_approved' ) ;
#119 = DATE_AND_TIME ( #53, #185 ) ;
#120 = COORDINATED_UNIVERSAL_TIME_OFFSET ( 1, 0, .AHEAD. ) ;
#121 = CALENDAR_DATE ( 2023, 13, 2 ) ;
#122 = CARTESIAN_POINT ( 'NONE',  ( -3.250000000000000444, 0.000000000000000000, 160.0000000000000000 ) ) ;
#123 = DIRECTION ( 'NONE',  ( 0.000000000000000000, 0.000000000000000000, 1.000000000000000000 ) ) ;
#124 = LINE ( 'NONE', #213, #81 ) ;
#125 = DIRECTION ( 'NONE',  ( 1.000000000000000000, 0.000000000000000000, 0.000000000000000000 ) ) ;
#126 = CYLINDRICAL_SURFACE ( 'NONE', #44, 6.000000000000000888 ) ;
#127 = APPROVAL_PERSON_ORGANIZATION ( #205, #160, #102 ) ;
#128 = DIRECTION ( 'NONE',  ( 1.000000000000000000, 0.000000000000000000, 0.000000000000000000 ) ) ;
#129 = ORIENTED_EDGE ( 'NONE', *, *, #85, .F. ) ;
#130 = DIRECTION ( 'NONE',  ( 0.000000000000000000, 0.000000000000000000, 1.000000000000000000 ) ) ;
#131 = ORIENTED_EDGE ( 'NONE', *, *, #79, .T. ) ;
#132 = EDGE_CURVE ( 'NONE', #247, #153, #41, .T. ) ;
#133 = CARTESIAN_POINT ( 'NONE',  ( 0.000000000000000000, 0.000000000000000000, 5.000000000000000000 ) ) ;
#134 = UNCERTAINTY_MEASURE_WITH_UNIT (LENGTH_MEASURE( 1.000000000000000082E-05 ), #244, 'distance_accuracy_value', 'NONE');
#135 = ADVANCED_FACE ( 'NONE', ( #42 ), #158, .T. ) ;
#136 = DATE_TIME_ROLE ( 'creation_date' ) ;
#137 = VERTEX_POINT ( 'NONE', #193 ) ;
#138 = DIRECTION ( 'NONE',  ( -0.000000000000000000, -0.000000000000000000, -1.000000000000000000 ) ) ;
#139 = PERSON_AND_ORGANIZATION ( #34, #48 ) ;
#140 = APPLICATION_PROTOCOL_DEFINITION ( 'international standard', 'config_control_design', 1994, #145 ) ;
#141 = CC_DESIGN_APPROVAL ( #55, ( #215 ) ) ;
#142 = EDGE_LOOP ( 'NONE', ( #69, #67 ) ) ;
#143 = APPROVAL_ROLE ( '' ) ;
#144 = ORIENTED_EDGE ( 'NONE', *, *, #85, .T. ) ;
#145 = APPLICATION_CONTEXT ( 'configuration controlled 3d designs of mechanical parts and assemblies' ) ;
#146 = PERSON_AND_ORGANIZATION_ROLE ( 'creator' ) ;
#147 = DIRECTION ( 'NONE',  ( 0.000000000000000000, 0.000000000000000000, 1.000000000000000000 ) ) ;
#148 = CARTESIAN_POINT ( 'NONE',  ( 6.000000000000000888, 7.347880794884120722E-16, 5.000000000000000000 ) ) ;
#149 = DIRECTION ( 'NONE',  ( 0.000000000000000000, 0.000000000000000000, 1.000000000000000000 ) ) ;
#150 = ADVANCED_FACE ( 'NONE', ( #25 ), #236, .T. ) ;
#151 = DIRECTION ( 'NONE',  ( 0.000000000000000000, 0.000000000000000000, 1.000000000000000000 ) ) ;
#152 = DIRECTION ( 'NONE',  ( 0.000000000000000000, 0.000000000000000000, 1.000000000000000000 ) ) ;
#153 = VERTEX_POINT ( 'NONE', #252 ) ;
#154 = CARTESIAN_POINT ( 'NONE',  ( 3.250000000000000444, 3.980102097228898231E-16, 160.0000000000000000 ) ) ;
#155 = AXIS2_PLACEMENT_3D ( 'NONE', #63, #192, #125 ) ;
#156 = VERTEX_POINT ( 'NONE', #37 ) ;
#157 =( NAMED_UNIT ( * ) SI_UNIT ( $, .STERADIAN. ) SOLID_ANGLE_UNIT ( ) );
#158 = CYLINDRICAL_SURFACE ( 'NONE', #19, 3.250000000000000444 ) ;
#159 = ORIENTED_EDGE ( 'NONE', *, *, #72, .F. ) ;
#160 = APPROVAL ( #248, 'NEURÈENÝ' ) ;
#161 = ORIENTED_EDGE ( 'NONE', *, *, #66, .F. ) ;
#162 = CARTESIAN_POINT ( 'NONE',  ( -6.000000000000000888, 0.000000000000000000, 0.000000000000000000 ) ) ;
#163 = PERSON_AND_ORGANIZATION_ROLE ( 'design_supplier' ) ;
#164 = EDGE_LOOP ( 'NONE', ( #221, #161 ) ) ;
#165 = PERSON_AND_ORGANIZATION ( #34, #48 ) ;
#166 = VERTEX_POINT ( 'NONE', #107 ) ;
#167 = ORIENTED_EDGE ( 'NONE', *, *, #6, .T. ) ;
#168 = DIRECTION ( 'NONE',  ( 1.000000000000000000, 0.000000000000000000, -0.000000000000000000 ) ) ;
#169 = CARTESIAN_POINT ( 'NONE',  ( 0.000000000000000000, 0.000000000000000000, 5.000000000000000000 ) ) ;
#170 = DIRECTION ( 'NONE',  ( 0.000000000000000000, 0.000000000000000000, 1.000000000000000000 ) ) ;
#171 = DIRECTION ( 'NONE',  ( 1.000000000000000000, 0.000000000000000000, 0.000000000000000000 ) ) ;
#172 = FACE_OUTER_BOUND ( 'NONE', #142, .T. ) ;
#173 = CC_DESIGN_PERSON_AND_ORGANIZATION_ASSIGNMENT ( #139, #146, ( #215 ) ) ;
#174 = DIRECTION ( 'NONE',  ( 1.000000000000000000, 0.000000000000000000, 0.000000000000000000 ) ) ;
#175 = DIRECTION ( 'NONE',  ( 1.000000000000000000, 0.000000000000000000, -0.000000000000000000 ) ) ;
#176 = LOCAL_TIME ( 15, 4, 27.00000000000000000, #180 ) ;
#177 = MECHANICAL_CONTEXT ( 'NONE', #145, 'mechanical' ) ;
#178 = VERTEX_POINT ( 'NONE', #148 ) ;
#179 = PRODUCT_RELATED_PRODUCT_CATEGORY ( 'detail', '', ( #197 ) ) ;
#180 = COORDINATED_UNIVERSAL_TIME_OFFSET ( 1, 0, .AHEAD. ) ;
#181 = AXIS2_PLACEMENT_3D ( 'NONE', #234, #36, #76 ) ;
#182 = AXIS2_PLACEMENT_3D ( 'NONE', #88, #170, #191 ) ;
#183 =( NAMED_UNIT ( * ) PLANE_ANGLE_UNIT ( ) SI_UNIT ( $, .RADIAN. ) );
#184 = CIRCLE ( 'NONE', #254, 3.250000000000000444 ) ;
#185 = LOCAL_TIME ( 15, 4, 27.00000000000000000, #226 ) ;
#186 = EDGE_CURVE ( 'NONE', #153, #247, #113, .T. ) ;
#187 = DIRECTION ( 'NONE',  ( -1.000000000000000000, 0.000000000000000000, 0.000000000000000000 ) ) ;
#188 = AXIS2_PLACEMENT_3D ( 'NONE', #235, #130, #175 ) ;
#189 = DIRECTION ( 'NONE',  ( 0.000000000000000000, 0.000000000000000000, 1.000000000000000000 ) ) ;
#190 = CYLINDRICAL_SURFACE ( 'NONE', #54, 3.250000000000000444 ) ;
#191 = DIRECTION ( 'NONE',  ( 1.000000000000000000, 0.000000000000000000, 0.000000000000000000 ) ) ;
#192 = DIRECTION ( 'NONE',  ( 0.000000000000000000, 0.000000000000000000, 1.000000000000000000 ) ) ;
#193 = CARTESIAN_POINT ( 'NONE',  ( 3.250000000000000444, 3.980102097228898231E-16, 5.000000000000000000 ) ) ;
#194 = ORIENTED_EDGE ( 'NONE', *, *, #12, .T. ) ;
#195 = APPROVAL_PERSON_ORGANIZATION ( #98, #198, #27 ) ;
#196 = PERSON_AND_ORGANIZATION ( #34, #48 ) ;
#197 = PRODUCT ( 'e8b0', 'e8b0', '', ( #177 ) ) ;
#198 = APPROVAL ( #118, 'NEURÈENÝ' ) ;
#199 = CIRCLE ( 'NONE', #40, 6.000000000000000888 ) ;
#200 = AXIS2_PLACEMENT_3D ( 'NONE', #15, #56, #128 ) ;
#201 = CC_DESIGN_SECURITY_CLASSIFICATION ( #78, ( #10 ) ) ;
#202 = ORIENTED_EDGE ( 'NONE', *, *, #132, .F. ) ;
#203 = APPROVAL_DATE_TIME ( #119, #198 ) ;
#204 = CIRCLE ( 'NONE', #155, 6.000000000000000888 ) ;
#205 = PERSON_AND_ORGANIZATION ( #34, #48 ) ;
#206 = ORIENTED_EDGE ( 'NONE', *, *, #97, .F. ) ;
#207 = LOCAL_TIME ( 15, 4, 27.00000000000000000, #229 ) ;
#208 = CALENDAR_DATE ( 2023, 13, 2 ) ;
#209 = EDGE_LOOP ( 'NONE', ( #202, #220, #99, #249 ) ) ;
#210 = EDGE_CURVE ( 'NONE', #166, #178, #255, .T. ) ;
#211 = LOCAL_TIME ( 15, 4, 27.00000000000000000, #243 ) ;
#212 = DIRECTION ( 'NONE',  ( 1.000000000000000000, 0.000000000000000000, 0.000000000000000000 ) ) ;
#213 = CARTESIAN_POINT ( 'NONE',  ( 6.000000000000000888, 7.347880794884120722E-16, 5.000000000000000000 ) ) ;
#214 = FACE_OUTER_BOUND ( 'NONE', #209, .T. ) ;
#215 = PRODUCT_DEFINITION ( 'NEZNÁMÝ', '', #10, #4 ) ;
#216 = DIRECTION ( 'NONE',  ( -1.000000000000000000, 0.000000000000000000, 0.000000000000000000 ) ) ;
#217 = LINE ( 'NONE', #111, #80 ) ;
#218 = ORIENTED_EDGE ( 'NONE', *, *, #186, .T. ) ;
#219 = APPLICATION_PROTOCOL_DEFINITION ( 'international standard', 'config_control_design', 1994, #2 ) ;
#220 = ORIENTED_EDGE ( 'NONE', *, *, #97, .T. ) ;
#221 = ORIENTED_EDGE ( 'NONE', *, *, #12, .F. ) ;
#222 = CC_DESIGN_PERSON_AND_ORGANIZATION_ASSIGNMENT ( #238, #64, ( #197 ) ) ;
#223 = AXIS2_PLACEMENT_3D ( 'NONE', #87, #152, #106 ) ;
#224 = APPROVAL_DATE_TIME ( #26, #55 ) ;
#225 = ORIENTED_EDGE ( 'NONE', *, *, #72, .T. ) ;
#226 = COORDINATED_UNIVERSAL_TIME_OFFSET ( 1, 0, .AHEAD. ) ;
#227 = VERTEX_POINT ( 'NONE', #162 ) ;
#228 = EDGE_LOOP ( 'NONE', ( #159, #144, #131, #82 ) ) ;
#229 = COORDINATED_UNIVERSAL_TIME_OFFSET ( 1, 0, .AHEAD. ) ;
#230 = DATE_AND_TIME ( #49, #176 ) ;
#231 = EDGE_LOOP ( 'NONE', ( #206, #32, #167, #194 ) ) ;
#232 = MANIFOLD_SOLID_BREP ( 'Pøidat vysunutím3', #103 ) ;
#233 = DIRECTION ( 'NONE',  ( 1.000000000000000000, 0.000000000000000000, 0.000000000000000000 ) ) ;
#234 = CARTESIAN_POINT ( 'NONE',  ( 0.000000000000000000, 0.000000000000000000, 5.000000000000000000 ) ) ;
#235 = CARTESIAN_POINT ( 'NONE',  ( 0.000000000000000000, 0.000000000000000000, 0.000000000000000000 ) ) ;
#236 = CYLINDRICAL_SURFACE ( 'NONE', #13, 6.000000000000000888 ) ;
#237 = CC_DESIGN_DATE_AND_TIME_ASSIGNMENT ( #51, #11, ( #78 ) ) ;
#238 = PERSON_AND_ORGANIZATION ( #34, #48 ) ;
#239 = DIRECTION ( 'NONE',  ( -0.000000000000000000, -0.000000000000000000, -1.000000000000000000 ) ) ;
#240 = AXIS2_PLACEMENT_3D ( 'NONE', #71, #147, #212 ) ;
#241 = CALENDAR_DATE ( 2023, 13, 2 ) ;
#242 = ORIENTED_EDGE ( 'NONE', *, *, #210, .T. ) ;
#243 = COORDINATED_UNIVERSAL_TIME_OFFSET ( 1, 0, .AHEAD. ) ;
#244 =( LENGTH_UNIT ( ) NAMED_UNIT ( * ) SI_UNIT ( .MILLI., .METRE. ) );
#245 = LINE ( 'NONE', #122, #96 ) ;
#246 = APPROVAL_STATUS ( 'not_yet_approved' ) ;
#247 = VERTEX_POINT ( 'NONE', #250 ) ;
#248 = APPROVAL_STATUS ( 'not_yet_approved' ) ;
#249 = ORIENTED_EDGE ( 'NONE', *, *, #6, .F. ) ;
#250 = CARTESIAN_POINT ( 'NONE',  ( 3.250000000000000444, 3.980102097228898231E-16, 160.0000000000000000 ) ) ;
#251 = APPROVAL_DATE_TIME ( #31, #160 ) ;
#252 = CARTESIAN_POINT ( 'NONE',  ( -3.250000000000000444, 0.000000000000000000, 160.0000000000000000 ) ) ;
#253 = DIRECTION ( 'NONE',  ( -0.000000000000000000, -0.000000000000000000, -1.000000000000000000 ) ) ;
#254 = AXIS2_PLACEMENT_3D ( 'NONE', #169, #151, #233 ) ;
#255 = CIRCLE ( 'NONE', #117, 6.000000000000000888 ) ;
ENDSEC;
END-ISO-10303-21;
