ISO-10303-21;
HEADER;
FILE_DESCRIPTION (( 'STEP AP203' ),
    '1' );
FILE_NAME ('ab82.STEP',
    '2023-02-13T14:34:17',
    ( '' ),
    ( '' ),
    'SwSTEP 2.0',
    'SolidWorks 2019',
    '' );
FILE_SCHEMA (( 'CONFIG_CONTROL_DESIGN' ));
ENDSEC;

DATA;
#1 = CC_DESIGN_DATE_AND_TIME_ASSIGNMENT ( #48, #13, ( #230 ) ) ;
#2 = PERSON_AND_ORGANIZATION ( #95, #255 ) ;
#3 = DATE_AND_TIME ( #238, #32 ) ;
#4 = CC_DESIGN_APPROVAL ( #145, ( #230 ) ) ;
#5 = CARTESIAN_POINT ( 'NONE',  ( 0.000000000000000000, 0.000000000000000000, 0.000000000000000000 ) ) ;
#6 = PRODUCT_DEFINITION_SHAPE ( 'NONE', 'NONE',  #230 ) ;
#7 = CALENDAR_DATE ( 2023, 13, 2 ) ;
#8 = ADVANCED_FACE ( 'NONE', ( #19 ), #71, .T. ) ;
#9 = VECTOR ( 'NONE', #137, 1000.000000000000000 ) ;
#10 = EDGE_CURVE ( 'NONE', #35, #89, #156, .T. ) ;
#11 = ORIENTED_EDGE ( 'NONE', *, *, #126, .F. ) ;
#12 = ORIENTED_EDGE ( 'NONE', *, *, #10, .F. ) ;
#13 = DATE_TIME_ROLE ( 'creation_date' ) ;
#14 = ORIENTED_EDGE ( 'NONE', *, *, #77, .T. ) ;
#15 = AXIS2_PLACEMENT_3D ( 'NONE', #247, #234, #142 ) ;
#16 = ORIENTED_EDGE ( 'NONE', *, *, #149, .F. ) ;
#17 = APPROVAL_ROLE ( '' ) ;
#18 = APPROVAL_STATUS ( 'not_yet_approved' ) ;
#19 = FACE_OUTER_BOUND ( 'NONE', #194, .T. ) ;
#20 = FACE_BOUND ( 'NONE', #87, .T. ) ;
#21 = CYLINDRICAL_SURFACE ( 'NONE', #81, 5.000000000000000000 ) ;
#22 = CC_DESIGN_APPROVAL ( #112, ( #27 ) ) ;
#23 = CARTESIAN_POINT ( 'NONE',  ( -5.000000000000000000, 0.000000000000000000, 3.000000000000000000 ) ) ;
#24 = SECURITY_CLASSIFICATION_LEVEL ( 'unclassified' ) ;
#25 = CARTESIAN_POINT ( 'NONE',  ( -2.750000000000000000, 0.000000000000000000, 3.000000000000000000 ) ) ;
#26 = DATE_AND_TIME ( #7, #34 ) ;
#27 = PRODUCT_DEFINITION_FORMATION_WITH_SPECIFIED_SOURCE ( 'LIBOVOLNÝ', '', #106, .NOT_KNOWN. ) ;
#28 = DIRECTION ( 'NONE',  ( 0.000000000000000000, 0.000000000000000000, 1.000000000000000000 ) ) ;
#29 = PRODUCT_RELATED_PRODUCT_CATEGORY ( 'detail', '', ( #106 ) ) ;
#30 = CYLINDRICAL_SURFACE ( 'NONE', #97, 2.750000000000000000 ) ;
#31 = ORIENTED_EDGE ( 'NONE', *, *, #44, .F. ) ;
#32 = LOCAL_TIME ( 15, 34, 17.00000000000000000, #129 ) ;
#33 = VERTEX_POINT ( 'NONE', #25 ) ;
#34 = LOCAL_TIME ( 15, 34, 17.00000000000000000, #130 ) ;
#35 = VERTEX_POINT ( 'NONE', #254 ) ;
#36 = DIRECTION ( 'NONE',  ( 0.000000000000000000, 0.000000000000000000, 1.000000000000000000 ) ) ;
#37 = PERSON_AND_ORGANIZATION_ROLE ( 'creator' ) ;
#38 = DIRECTION ( 'NONE',  ( 0.000000000000000000, 0.000000000000000000, 1.000000000000000000 ) ) ;
#39 = EDGE_CURVE ( 'NONE', #53, #190, #232, .T. ) ;
#40 = CARTESIAN_POINT ( 'NONE',  ( 0.000000000000000000, 0.000000000000000000, 125.0000000000000000 ) ) ;
#41 = AXIS2_PLACEMENT_3D ( 'NONE', #150, #178, #181 ) ;
#42 = DIRECTION ( 'NONE',  ( 1.000000000000000000, 0.000000000000000000, 0.000000000000000000 ) ) ;
#43 = DIRECTION ( 'NONE',  ( 0.000000000000000000, 0.000000000000000000, 1.000000000000000000 ) ) ;
#44 = EDGE_CURVE ( 'NONE', #152, #53, #86, .T. ) ;
#45 = PERSON_AND_ORGANIZATION ( #95, #255 ) ;
#46 = DIRECTION ( 'NONE',  ( -1.000000000000000000, 0.000000000000000000, 0.000000000000000000 ) ) ;
#47 = AXIS2_PLACEMENT_3D ( 'NONE', #122, #36, #155 ) ;
#48 = DATE_AND_TIME ( #239, #108 ) ;
#49 = LINE ( 'NONE', #82, #69 ) ;
#50 = APPROVAL_STATUS ( 'not_yet_approved' ) ;
#51 = AXIS2_PLACEMENT_3D ( 'NONE', #40, #182, #200 ) ;
#52 = PERSON_AND_ORGANIZATION ( #95, #255 ) ;
#53 = VERTEX_POINT ( 'NONE', #62 ) ;
#54 = EDGE_LOOP ( 'NONE', ( #226, #242, #115, #135 ) ) ;
#55 = CC_DESIGN_SECURITY_CLASSIFICATION ( #167, ( #27 ) ) ;
#56 = ORIENTED_EDGE ( 'NONE', *, *, #159, .F. ) ;
#57 = ORIENTED_EDGE ( 'NONE', *, *, #61, .T. ) ;
#58 = CC_DESIGN_APPROVAL ( #109, ( #167 ) ) ;
#59 = CARTESIAN_POINT ( 'NONE',  ( 2.750000000000000000, 3.367778697655220519E-16, 125.0000000000000000 ) ) ;
#60 = ADVANCED_BREP_SHAPE_REPRESENTATION ( 'ab82', ( #116, #218 ), #186 ) ;
#61 = EDGE_CURVE ( 'NONE', #35, #111, #158, .T. ) ;
#62 = CARTESIAN_POINT ( 'NONE',  ( -5.000000000000000000, 0.000000000000000000, 3.000000000000000000 ) ) ;
#63 = CARTESIAN_POINT ( 'NONE',  ( 0.000000000000000000, 0.000000000000000000, 3.000000000000000000 ) ) ;
#64 = FACE_OUTER_BOUND ( 'NONE', #54, .T. ) ;
#65 = CARTESIAN_POINT ( 'NONE',  ( 0.000000000000000000, 0.000000000000000000, 3.000000000000000000 ) ) ;
#66 = AXIS2_PLACEMENT_3D ( 'NONE', #180, #250, #166 ) ;
#67 = PERSON_AND_ORGANIZATION ( #95, #255 ) ;
#68 = CYLINDRICAL_SURFACE ( 'NONE', #244, 5.000000000000000000 ) ;
#69 = VECTOR ( 'NONE', #148, 1000.000000000000000 ) ;
#70 = EDGE_CURVE ( 'NONE', #190, #192, #195, .T. ) ;
#71 = CYLINDRICAL_SURFACE ( 'NONE', #41, 2.750000000000000000 ) ;
#72 = ORIENTED_EDGE ( 'NONE', *, *, #10, .T. ) ;
#73 = DIRECTION ( 'NONE',  ( 0.000000000000000000, 0.000000000000000000, 1.000000000000000000 ) ) ;
#74 = SHAPE_DEFINITION_REPRESENTATION ( #6, #60 ) ;
#75 = CIRCLE ( 'NONE', #222, 5.000000000000000000 ) ;
#76 = FACE_OUTER_BOUND ( 'NONE', #151, .T. ) ;
#77 = EDGE_CURVE ( 'NONE', #192, #190, #84, .T. ) ;
#78 = DIRECTION ( 'NONE',  ( -0.000000000000000000, -0.000000000000000000, -1.000000000000000000 ) ) ;
#79 = LINE ( 'NONE', #161, #179 ) ;
#80 = DIRECTION ( 'NONE',  ( 0.000000000000000000, 0.000000000000000000, 1.000000000000000000 ) ) ;
#81 = AXIS2_PLACEMENT_3D ( 'NONE', #216, #202, #99 ) ;
#82 = CARTESIAN_POINT ( 'NONE',  ( 5.000000000000000000, 6.123233995736766282E-16, 3.000000000000000000 ) ) ;
#83 = COORDINATED_UNIVERSAL_TIME_OFFSET ( 1, 0, .AHEAD. ) ;
#84 = CIRCLE ( 'NONE', #191, 5.000000000000000000 ) ;
#85 = CLOSED_SHELL ( 'NONE', ( #253, #221, #104, #209, #140, #8, #169 ) ) ;
#86 = CIRCLE ( 'NONE', #231, 5.000000000000000000 ) ;
#87 = EDGE_LOOP ( 'NONE', ( #174, #11 ) ) ;
#88 = UNCERTAINTY_MEASURE_WITH_UNIT (LENGTH_MEASURE( 1.000000000000000082E-05 ), #189, 'distance_accuracy_value', 'NONE');
#89 = VERTEX_POINT ( 'NONE', #139 ) ;
#90 = ORIENTED_EDGE ( 'NONE', *, *, #149, .T. ) ;
#91 = EDGE_CURVE ( 'NONE', #53, #152, #75, .T. ) ;
#92 = EDGE_LOOP ( 'NONE', ( #171, #72 ) ) ;
#93 = COORDINATED_UNIVERSAL_TIME_OFFSET ( 1, 0, .AHEAD. ) ;
#94 = DIRECTION ( 'NONE',  ( 1.000000000000000000, 0.000000000000000000, 0.000000000000000000 ) ) ;
#95 = PERSON ( 'NEURÈENÝ', 'NEURÈENÝ', 'NEURÈENÝ', ('NEURÈENÝ'), ('NEURÈENÝ'), ('NEURÈENÝ') ) ;
#96 = PERSON_AND_ORGANIZATION ( #95, #255 ) ;
#97 = AXIS2_PLACEMENT_3D ( 'NONE', #187, #128, #206 ) ;
#98 = DIRECTION ( 'NONE',  ( 0.000000000000000000, 0.000000000000000000, 1.000000000000000000 ) ) ;
#99 = DIRECTION ( 'NONE',  ( -1.000000000000000000, 0.000000000000000000, 0.000000000000000000 ) ) ;
#100 = APPROVAL_ROLE ( '' ) ;
#101 = CARTESIAN_POINT ( 'NONE',  ( 0.000000000000000000, 0.000000000000000000, 0.000000000000000000 ) ) ;
#102 = CARTESIAN_POINT ( 'NONE',  ( 2.750000000000000000, 3.367778697655220519E-16, 3.000000000000000000 ) ) ;
#103 = APPROVAL_PERSON_ORGANIZATION ( #127, #109, #17 ) ;
#104 = ADVANCED_FACE ( 'NONE', ( #64 ), #21, .T. ) ;
#105 = PERSON_AND_ORGANIZATION_ROLE ( 'design_owner' ) ;
#106 = PRODUCT ( 'ab82', 'ab82', '', ( #144 ) ) ;
#107 = DIRECTION ( 'NONE',  ( 1.000000000000000000, 0.000000000000000000, 0.000000000000000000 ) ) ;
#108 = LOCAL_TIME ( 15, 34, 17.00000000000000000, #83 ) ;
#109 = APPROVAL ( #138, 'NEURÈENÝ' ) ;
#110 = AXIS2_PLACEMENT_3D ( 'NONE', #65, #98, #143 ) ;
#111 = VERTEX_POINT ( 'NONE', #102 ) ;
#112 = APPROVAL ( #18, 'NEURÈENÝ' ) ;
#113 = ORIENTED_EDGE ( 'NONE', *, *, #188, .T. ) ;
#114 = AXIS2_PLACEMENT_3D ( 'NONE', #203, #73, #204 ) ;
#115 = ORIENTED_EDGE ( 'NONE', *, *, #39, .T. ) ;
#116 = MANIFOLD_SOLID_BREP ( 'Pøidat vysunutím3', #85 ) ;
#117 = PLANE ( 'NONE',  #225 ) ;
#118 = PERSON_AND_ORGANIZATION_ROLE ( 'design_supplier' ) ;
#119 = DIRECTION ( 'NONE',  ( 0.000000000000000000, 0.000000000000000000, 1.000000000000000000 ) ) ;
#120 = COORDINATED_UNIVERSAL_TIME_OFFSET ( 1, 0, .AHEAD. ) ;
#121 = APPROVAL_PERSON_ORGANIZATION ( #67, #145, #164 ) ;
#122 = CARTESIAN_POINT ( 'NONE',  ( 0.000000000000000000, 0.000000000000000000, 0.000000000000000000 ) ) ;
#123 = FACE_OUTER_BOUND ( 'NONE', #92, .T. ) ;
#124 = DIRECTION ( 'NONE',  ( -0.000000000000000000, -0.000000000000000000, -1.000000000000000000 ) ) ;
#125 = FACE_OUTER_BOUND ( 'NONE', #211, .T. ) ;
#126 = EDGE_CURVE ( 'NONE', #111, #33, #153, .T. ) ;
#127 = PERSON_AND_ORGANIZATION ( #95, #255 ) ;
#128 = DIRECTION ( 'NONE',  ( -0.000000000000000000, -0.000000000000000000, -1.000000000000000000 ) ) ;
#129 = COORDINATED_UNIVERSAL_TIME_OFFSET ( 1, 0, .AHEAD. ) ;
#130 = COORDINATED_UNIVERSAL_TIME_OFFSET ( 1, 0, .AHEAD. ) ;
#131 = APPROVAL_DATE_TIME ( #26, #145 ) ;
#132 = ORIENTED_EDGE ( 'NONE', *, *, #70, .F. ) ;
#133 = APPLICATION_CONTEXT ( 'configuration controlled 3d designs of mechanical parts and assemblies' ) ;
#134 = LOCAL_TIME ( 15, 34, 17.00000000000000000, #93 ) ;
#135 = ORIENTED_EDGE ( 'NONE', *, *, #70, .T. ) ;
#136 = DIRECTION ( 'NONE',  ( 1.000000000000000000, 0.000000000000000000, 0.000000000000000000 ) ) ;
#137 = DIRECTION ( 'NONE',  ( -0.000000000000000000, -0.000000000000000000, -1.000000000000000000 ) ) ;
#138 = APPROVAL_STATUS ( 'not_yet_approved' ) ;
#139 = CARTESIAN_POINT ( 'NONE',  ( -2.750000000000000000, 0.000000000000000000, 125.0000000000000000 ) ) ;
#140 = ADVANCED_FACE ( 'NONE', ( #213 ), #117, .F. ) ;
#141 = VECTOR ( 'NONE', #124, 1000.000000000000000 ) ;
#142 = DIRECTION ( 'NONE',  ( 1.000000000000000000, 0.000000000000000000, 0.000000000000000000 ) ) ;
#143 = DIRECTION ( 'NONE',  ( 1.000000000000000000, 0.000000000000000000, 0.000000000000000000 ) ) ;
#144 = MECHANICAL_CONTEXT ( 'NONE', #133, 'mechanical' ) ;
#145 = APPROVAL ( #50, 'NEURÈENÝ' ) ;
#146 = CARTESIAN_POINT ( 'NONE',  ( 0.000000000000000000, 0.000000000000000000, 3.000000000000000000 ) ) ;
#147 = APPROVAL_PERSON_ORGANIZATION ( #160, #112, #100 ) ;
#148 = DIRECTION ( 'NONE',  ( -0.000000000000000000, -0.000000000000000000, -1.000000000000000000 ) ) ;
#149 = EDGE_CURVE ( 'NONE', #89, #33, #79, .T. ) ;
#150 = CARTESIAN_POINT ( 'NONE',  ( 0.000000000000000000, 0.000000000000000000, 125.0000000000000000 ) ) ;
#151 = EDGE_LOOP ( 'NONE', ( #154, #176 ) ) ;
#152 = VERTEX_POINT ( 'NONE', #198 ) ;
#153 = CIRCLE ( 'NONE', #241, 2.750000000000000000 ) ;
#154 = ORIENTED_EDGE ( 'NONE', *, *, #91, .T. ) ;
#155 = DIRECTION ( 'NONE',  ( 1.000000000000000000, 0.000000000000000000, 0.000000000000000000 ) ) ;
#156 = CIRCLE ( 'NONE', #51, 2.750000000000000000 ) ;
#157 = PLANE ( 'NONE',  #66 ) ;
#158 = LINE ( 'NONE', #59, #9 ) ;
#159 = EDGE_CURVE ( 'NONE', #89, #35, #235, .T. ) ;
#160 = PERSON_AND_ORGANIZATION ( #95, #255 ) ;
#161 = CARTESIAN_POINT ( 'NONE',  ( -2.750000000000000000, 0.000000000000000000, 125.0000000000000000 ) ) ;
#162 = CIRCLE ( 'NONE', #110, 2.750000000000000000 ) ;
#163 = DIRECTION ( 'NONE',  ( 1.000000000000000000, 0.000000000000000000, -0.000000000000000000 ) ) ;
#164 = APPROVAL_ROLE ( '' ) ;
#165 = DATE_TIME_ROLE ( 'classification_date' ) ;
#166 = DIRECTION ( 'NONE',  ( 1.000000000000000000, 0.000000000000000000, -0.000000000000000000 ) ) ;
#167 = SECURITY_CLASSIFICATION ( '', '', #24 ) ;
#168 = APPLICATION_PROTOCOL_DEFINITION ( 'international standard', 'config_control_design', 1994, #133 ) ;
#169 = ADVANCED_FACE ( 'NONE', ( #123 ), #236, .T. ) ;
#170 = CC_DESIGN_PERSON_AND_ORGANIZATION_ASSIGNMENT ( #96, #118, ( #27 ) ) ;
#171 = ORIENTED_EDGE ( 'NONE', *, *, #159, .T. ) ;
#172 = ORIENTED_EDGE ( 'NONE', *, *, #228, .T. ) ;
#173 = LOCAL_TIME ( 15, 34, 17.00000000000000000, #120 ) ;
#174 = ORIENTED_EDGE ( 'NONE', *, *, #188, .F. ) ;
#175 = CALENDAR_DATE ( 2023, 13, 2 ) ;
#176 = ORIENTED_EDGE ( 'NONE', *, *, #44, .T. ) ;
#177 = APPLICATION_CONTEXT ( 'configuration controlled 3d designs of mechanical parts and assemblies' ) ;
#178 = DIRECTION ( 'NONE',  ( -0.000000000000000000, -0.000000000000000000, -1.000000000000000000 ) ) ;
#179 = VECTOR ( 'NONE', #78, 1000.000000000000000 ) ;
#180 = CARTESIAN_POINT ( 'NONE',  ( 0.000000000000000000, 0.000000000000000000, 3.000000000000000000 ) ) ;
#181 = DIRECTION ( 'NONE',  ( -1.000000000000000000, 0.000000000000000000, 0.000000000000000000 ) ) ;
#182 = DIRECTION ( 'NONE',  ( 0.000000000000000000, 0.000000000000000000, 1.000000000000000000 ) ) ;
#183 = APPLICATION_PROTOCOL_DEFINITION ( 'international standard', 'config_control_design', 1994, #177 ) ;
#184 = PERSON_AND_ORGANIZATION_ROLE ( 'classification_officer' ) ;
#185 =( NAMED_UNIT ( * ) SI_UNIT ( $, .STERADIAN. ) SOLID_ANGLE_UNIT ( ) );
#186 =( GEOMETRIC_REPRESENTATION_CONTEXT ( 3 ) GLOBAL_UNCERTAINTY_ASSIGNED_CONTEXT ( ( #88 ) ) GLOBAL_UNIT_ASSIGNED_CONTEXT ( ( #189, #237, #185 ) ) REPRESENTATION_CONTEXT ( 'NONE', 'WORKASPACE' ) );
#187 = CARTESIAN_POINT ( 'NONE',  ( 0.000000000000000000, 0.000000000000000000, 125.0000000000000000 ) ) ;
#188 = EDGE_CURVE ( 'NONE', #33, #111, #162, .T. ) ;
#189 =( LENGTH_UNIT ( ) NAMED_UNIT ( * ) SI_UNIT ( .MILLI., .METRE. ) );
#190 = VERTEX_POINT ( 'NONE', #220 ) ;
#191 = AXIS2_PLACEMENT_3D ( 'NONE', #101, #249, #94 ) ;
#192 = VERTEX_POINT ( 'NONE', #229 ) ;
#193 = ORIENTED_EDGE ( 'NONE', *, *, #61, .F. ) ;
#194 = EDGE_LOOP ( 'NONE', ( #193, #56, #90, #113 ) ) ;
#195 = CIRCLE ( 'NONE', #47, 5.000000000000000000 ) ;
#196 = EDGE_LOOP ( 'NONE', ( #12, #57, #208, #16 ) ) ;
#197 = DESIGN_CONTEXT ( 'detailed design', #177, 'design' ) ;
#198 = CARTESIAN_POINT ( 'NONE',  ( 5.000000000000000000, 6.123233995736766282E-16, 3.000000000000000000 ) ) ;
#199 = CC_DESIGN_DATE_AND_TIME_ASSIGNMENT ( #3, #165, ( #167 ) ) ;
#200 = DIRECTION ( 'NONE',  ( 1.000000000000000000, 0.000000000000000000, 0.000000000000000000 ) ) ;
#201 = DATE_AND_TIME ( #248, #173 ) ;
#202 = DIRECTION ( 'NONE',  ( -0.000000000000000000, -0.000000000000000000, -1.000000000000000000 ) ) ;
#203 = CARTESIAN_POINT ( 'NONE',  ( 0.000000000000000000, 0.000000000000000000, 125.0000000000000000 ) ) ;
#204 = DIRECTION ( 'NONE',  ( 1.000000000000000000, 0.000000000000000000, -0.000000000000000000 ) ) ;
#205 = CC_DESIGN_PERSON_AND_ORGANIZATION_ASSIGNMENT ( #52, #207, ( #230 ) ) ;
#206 = DIRECTION ( 'NONE',  ( -1.000000000000000000, 0.000000000000000000, 0.000000000000000000 ) ) ;
#207 = PERSON_AND_ORGANIZATION_ROLE ( 'creator' ) ;
#208 = ORIENTED_EDGE ( 'NONE', *, *, #126, .T. ) ;
#209 = ADVANCED_FACE ( 'NONE', ( #20, #76 ), #157, .T. ) ;
#210 = ORIENTED_EDGE ( 'NONE', *, *, #39, .F. ) ;
#211 = EDGE_LOOP ( 'NONE', ( #31, #172, #14, #210 ) ) ;
#212 = APPROVAL_DATE_TIME ( #246, #112 ) ;
#213 = FACE_OUTER_BOUND ( 'NONE', #227, .T. ) ;
#214 = CC_DESIGN_PERSON_AND_ORGANIZATION_ASSIGNMENT ( #215, #37, ( #27 ) ) ;
#215 = PERSON_AND_ORGANIZATION ( #95, #255 ) ;
#216 = CARTESIAN_POINT ( 'NONE',  ( 0.000000000000000000, 0.000000000000000000, 3.000000000000000000 ) ) ;
#217 = CARTESIAN_POINT ( 'NONE',  ( 0.000000000000000000, 0.000000000000000000, 3.000000000000000000 ) ) ;
#218 = AXIS2_PLACEMENT_3D ( 'NONE', #5, #28, #107 ) ;
#219 = CARTESIAN_POINT ( 'NONE',  ( 0.000000000000000000, 0.000000000000000000, 3.000000000000000000 ) ) ;
#220 = CARTESIAN_POINT ( 'NONE',  ( -5.000000000000000000, 0.000000000000000000, 0.000000000000000000 ) ) ;
#221 = ADVANCED_FACE ( 'NONE', ( #125 ), #68, .T. ) ;
#222 = AXIS2_PLACEMENT_3D ( 'NONE', #63, #80, #42 ) ;
#223 = FACE_OUTER_BOUND ( 'NONE', #196, .T. ) ;
#224 = DIRECTION ( 'NONE',  ( -0.000000000000000000, -0.000000000000000000, -1.000000000000000000 ) ) ;
#225 = AXIS2_PLACEMENT_3D ( 'NONE', #252, #119, #163 ) ;
#226 = ORIENTED_EDGE ( 'NONE', *, *, #228, .F. ) ;
#227 = EDGE_LOOP ( 'NONE', ( #132, #245 ) ) ;
#228 = EDGE_CURVE ( 'NONE', #152, #192, #49, .T. ) ;
#229 = CARTESIAN_POINT ( 'NONE',  ( 5.000000000000000000, 6.123233995736766282E-16, 0.000000000000000000 ) ) ;
#230 = PRODUCT_DEFINITION ( 'NEZNÁMÝ', '', #27, #197 ) ;
#231 = AXIS2_PLACEMENT_3D ( 'NONE', #219, #43, #136 ) ;
#232 = LINE ( 'NONE', #23, #141 ) ;
#233 = DIRECTION ( 'NONE',  ( 1.000000000000000000, 0.000000000000000000, 0.000000000000000000 ) ) ;
#234 = DIRECTION ( 'NONE',  ( 0.000000000000000000, 0.000000000000000000, 1.000000000000000000 ) ) ;
#235 = CIRCLE ( 'NONE', #15, 2.750000000000000000 ) ;
#236 = PLANE ( 'NONE',  #114 ) ;
#237 =( NAMED_UNIT ( * ) PLANE_ANGLE_UNIT ( ) SI_UNIT ( $, .RADIAN. ) );
#238 = CALENDAR_DATE ( 2023, 13, 2 ) ;
#239 = CALENDAR_DATE ( 2023, 13, 2 ) ;
#240 = CC_DESIGN_PERSON_AND_ORGANIZATION_ASSIGNMENT ( #45, #184, ( #167 ) ) ;
#241 = AXIS2_PLACEMENT_3D ( 'NONE', #217, #38, #233 ) ;
#242 = ORIENTED_EDGE ( 'NONE', *, *, #91, .F. ) ;
#243 = CC_DESIGN_PERSON_AND_ORGANIZATION_ASSIGNMENT ( #2, #105, ( #106 ) ) ;
#244 = AXIS2_PLACEMENT_3D ( 'NONE', #146, #224, #46 ) ;
#245 = ORIENTED_EDGE ( 'NONE', *, *, #77, .F. ) ;
#246 = DATE_AND_TIME ( #175, #134 ) ;
#247 = CARTESIAN_POINT ( 'NONE',  ( 0.000000000000000000, 0.000000000000000000, 125.0000000000000000 ) ) ;
#248 = CALENDAR_DATE ( 2023, 13, 2 ) ;
#249 = DIRECTION ( 'NONE',  ( 0.000000000000000000, 0.000000000000000000, 1.000000000000000000 ) ) ;
#250 = DIRECTION ( 'NONE',  ( 0.000000000000000000, 0.000000000000000000, 1.000000000000000000 ) ) ;
#251 = APPROVAL_DATE_TIME ( #201, #109 ) ;
#252 = CARTESIAN_POINT ( 'NONE',  ( 0.000000000000000000, 0.000000000000000000, 0.000000000000000000 ) ) ;
#253 = ADVANCED_FACE ( 'NONE', ( #223 ), #30, .T. ) ;
#254 = CARTESIAN_POINT ( 'NONE',  ( 2.750000000000000000, 3.367778697655220519E-16, 125.0000000000000000 ) ) ;
#255 = ORGANIZATION ( 'NEURÈENÝ', 'NEURÈENÝ', '' ) ;
ENDSEC;
END-ISO-10303-21;
