ISO-10303-21;
HEADER;
FILE_DESCRIPTION (( 'STEP AP203' ),
    '1' );
FILE_NAME ('5e45.STEP',
    '2023-02-13T15:35:49',
    ( '' ),
    ( '' ),
    'SwSTEP 2.0',
    'SolidWorks 2019',
    '' );
FILE_SCHEMA (( 'CONFIG_CONTROL_DESIGN' ));
ENDSEC;

DATA;
#1 = FACE_OUTER_BOUND ( 'NONE', #199, .T. ) ;
#2 = PLANE ( 'NONE',  #111 ) ;
#3 = APPROVAL_DATE_TIME ( #94, #187 ) ;
#4 = PRODUCT_DEFINITION_FORMATION_WITH_SPECIFIED_SOURCE ( 'LIBOVOLNÝ', '', #82, .NOT_KNOWN. ) ;
#5 = CARTESIAN_POINT ( 'NONE',  ( 0.000000000000000000, 0.000000000000000000, 200.0000000000000000 ) ) ;
#6 = DIRECTION ( 'NONE',  ( 0.000000000000000000, 0.000000000000000000, 1.000000000000000000 ) ) ;
#7 = MANIFOLD_SOLID_BREP ( 'Pøidat vysunutím3', #228 ) ;
#8 = CARTESIAN_POINT ( 'NONE',  ( 0.000000000000000000, 0.000000000000000000, 0.000000000000000000 ) ) ;
#9 = DIRECTION ( 'NONE',  ( 0.000000000000000000, 0.000000000000000000, 1.000000000000000000 ) ) ;
#10 = EDGE_LOOP ( 'NONE', ( #125, #80 ) ) ;
#11 = COORDINATED_UNIVERSAL_TIME_OFFSET ( 1, 0, .AHEAD. ) ;
#12 = CYLINDRICAL_SURFACE ( 'NONE', #172, 1.600000000000000089 ) ;
#13 = DIRECTION ( 'NONE',  ( 1.000000000000000000, 0.000000000000000000, 0.000000000000000000 ) ) ;
#14 = ORIENTED_EDGE ( 'NONE', *, *, #163, .F. ) ;
#15 = APPROVAL_PERSON_ORGANIZATION ( #160, #187, #195 ) ;
#16 = ADVANCED_FACE ( 'NONE', ( #198 ), #52, .T. ) ;
#17 = CARTESIAN_POINT ( 'NONE',  ( 3.000000000000000444, 3.673940397442060361E-16, 0.000000000000000000 ) ) ;
#18 = DIRECTION ( 'NONE',  ( 0.000000000000000000, 0.000000000000000000, 1.000000000000000000 ) ) ;
#19 = APPLICATION_CONTEXT ( 'configuration controlled 3d designs of mechanical parts and assemblies' ) ;
#20 = AXIS2_PLACEMENT_3D ( 'NONE', #189, #6, #218 ) ;
#21 = CARTESIAN_POINT ( 'NONE',  ( 1.600000000000000089, 1.959434878635765230E-16, 3.000000000000000000 ) ) ;
#22 = AXIS2_PLACEMENT_3D ( 'NONE', #170, #54, #242 ) ;
#23 = CIRCLE ( 'NONE', #30, 1.600000000000000089 ) ;
#24 = ORIENTED_EDGE ( 'NONE', *, *, #247, .F. ) ;
#25 = LINE ( 'NONE', #40, #138 ) ;
#26 = PERSON_AND_ORGANIZATION_ROLE ( 'design_owner' ) ;
#27 = AXIS2_PLACEMENT_3D ( 'NONE', #63, #108, #128 ) ;
#28 = PERSON_AND_ORGANIZATION ( #124, #239 ) ;
#29 = CIRCLE ( 'NONE', #183, 3.000000000000000444 ) ;
#30 = AXIS2_PLACEMENT_3D ( 'NONE', #44, #18, #109 ) ;
#31 = EDGE_CURVE ( 'NONE', #237, #35, #75, .T. ) ;
#32 =( LENGTH_UNIT ( ) NAMED_UNIT ( * ) SI_UNIT ( .MILLI., .METRE. ) );
#33 = DIRECTION ( 'NONE',  ( -0.000000000000000000, -0.000000000000000000, -1.000000000000000000 ) ) ;
#34 = FACE_BOUND ( 'NONE', #104, .T. ) ;
#35 = VERTEX_POINT ( 'NONE', #182 ) ;
#36 = ORIENTED_EDGE ( 'NONE', *, *, #226, .F. ) ;
#37 = DIRECTION ( 'NONE',  ( 0.000000000000000000, 0.000000000000000000, 1.000000000000000000 ) ) ;
#38 = CALENDAR_DATE ( 2023, 13, 2 ) ;
#39 = SECURITY_CLASSIFICATION ( '', '', #78 ) ;
#40 = CARTESIAN_POINT ( 'NONE',  ( 1.600000000000000089, 1.959434878635765230E-16, 200.0000000000000000 ) ) ;
#41 = APPROVAL_PERSON_ORGANIZATION ( #207, #140, #197 ) ;
#42 = LINE ( 'NONE', #149, #146 ) ;
#43 = VERTEX_POINT ( 'NONE', #17 ) ;
#44 = CARTESIAN_POINT ( 'NONE',  ( 0.000000000000000000, 0.000000000000000000, 200.0000000000000000 ) ) ;
#45 = CC_DESIGN_APPROVAL ( #187, ( #229 ) ) ;
#46 = APPROVAL ( #212, 'NEURÈENÝ' ) ;
#47 = DIRECTION ( 'NONE',  ( -0.000000000000000000, -0.000000000000000000, -1.000000000000000000 ) ) ;
#48 = CC_DESIGN_DATE_AND_TIME_ASSIGNMENT ( #62, #72, ( #39 ) ) ;
#49 = CARTESIAN_POINT ( 'NONE',  ( 0.000000000000000000, 0.000000000000000000, 3.000000000000000000 ) ) ;
#50 = DIRECTION ( 'NONE',  ( 0.000000000000000000, 0.000000000000000000, 1.000000000000000000 ) ) ;
#51 = DIRECTION ( 'NONE',  ( 1.000000000000000000, 0.000000000000000000, -0.000000000000000000 ) ) ;
#52 = CYLINDRICAL_SURFACE ( 'NONE', #22, 3.000000000000000444 ) ;
#53 = AXIS2_PLACEMENT_3D ( 'NONE', #139, #37, #107 ) ;
#54 = DIRECTION ( 'NONE',  ( -0.000000000000000000, -0.000000000000000000, -1.000000000000000000 ) ) ;
#55 = VERTEX_POINT ( 'NONE', #253 ) ;
#56 = CIRCLE ( 'NONE', #167, 3.000000000000000444 ) ;
#57 = AXIS2_PLACEMENT_3D ( 'NONE', #162, #9, #13 ) ;
#58 = PRODUCT_DEFINITION_SHAPE ( 'NONE', 'NONE',  #229 ) ;
#59 = LINE ( 'NONE', #141, #68 ) ;
#60 =( NAMED_UNIT ( * ) SI_UNIT ( $, .STERADIAN. ) SOLID_ANGLE_UNIT ( ) );
#61 = CARTESIAN_POINT ( 'NONE',  ( -1.600000000000000089, 0.000000000000000000, 200.0000000000000000 ) ) ;
#62 = DATE_AND_TIME ( #112, #169 ) ;
#63 = CARTESIAN_POINT ( 'NONE',  ( 0.000000000000000000, 0.000000000000000000, 0.000000000000000000 ) ) ;
#64 = CARTESIAN_POINT ( 'NONE',  ( 0.000000000000000000, 0.000000000000000000, 200.0000000000000000 ) ) ;
#65 = CARTESIAN_POINT ( 'NONE',  ( -3.000000000000000444, 0.000000000000000000, 3.000000000000000000 ) ) ;
#66 = DATE_TIME_ROLE ( 'creation_date' ) ;
#67 = CC_DESIGN_PERSON_AND_ORGANIZATION_ASSIGNMENT ( #70, #133, ( #229 ) ) ;
#68 = VECTOR ( 'NONE', #33, 1000.000000000000000 ) ;
#69 = ADVANCED_FACE ( 'NONE', ( #250 ), #12, .T. ) ;
#70 = PERSON_AND_ORGANIZATION ( #124, #239 ) ;
#71 = CC_DESIGN_PERSON_AND_ORGANIZATION_ASSIGNMENT ( #91, #105, ( #4 ) ) ;
#72 = DATE_TIME_ROLE ( 'classification_date' ) ;
#73 = COORDINATED_UNIVERSAL_TIME_OFFSET ( 1, 0, .AHEAD. ) ;
#74 = MECHANICAL_CONTEXT ( 'NONE', #19, 'mechanical' ) ;
#75 = LINE ( 'NONE', #65, #246 ) ;
#76 = EDGE_CURVE ( 'NONE', #93, #137, #59, .T. ) ;
#77 = VERTEX_POINT ( 'NONE', #120 ) ;
#78 = SECURITY_CLASSIFICATION_LEVEL ( 'unclassified' ) ;
#79 = CYLINDRICAL_SURFACE ( 'NONE', #135, 3.000000000000000444 ) ;
#80 = ORIENTED_EDGE ( 'NONE', *, *, #179, .F. ) ;
#81 = CARTESIAN_POINT ( 'NONE',  ( -3.000000000000000444, 0.000000000000000000, 3.000000000000000000 ) ) ;
#82 = PRODUCT ( '5e45', '5e45', '', ( #74 ) ) ;
#83 = EDGE_LOOP ( 'NONE', ( #144, #176 ) ) ;
#84 = CARTESIAN_POINT ( 'NONE',  ( 0.000000000000000000, 0.000000000000000000, 3.000000000000000000 ) ) ;
#85 = APPROVAL_PERSON_ORGANIZATION ( #145, #46, #188 ) ;
#86 = AXIS2_PLACEMENT_3D ( 'NONE', #180, #225, #127 ) ;
#87 = DIRECTION ( 'NONE',  ( -1.000000000000000000, 0.000000000000000000, 0.000000000000000000 ) ) ;
#88 = APPLICATION_CONTEXT ( 'configuration controlled 3d designs of mechanical parts and assemblies' ) ;
#89 = ORIENTED_EDGE ( 'NONE', *, *, #208, .F. ) ;
#90 = CC_DESIGN_PERSON_AND_ORGANIZATION_ASSIGNMENT ( #28, #244, ( #39 ) ) ;
#91 = PERSON_AND_ORGANIZATION ( #124, #239 ) ;
#92 = ORIENTED_EDGE ( 'NONE', *, *, #165, .F. ) ;
#93 = VERTEX_POINT ( 'NONE', #61 ) ;
#94 = DATE_AND_TIME ( #98, #103 ) ;
#95 = DIRECTION ( 'NONE',  ( 1.000000000000000000, 0.000000000000000000, 0.000000000000000000 ) ) ;
#96 = APPLICATION_PROTOCOL_DEFINITION ( 'international standard', 'config_control_design', 1994, #88 ) ;
#97 = LOCAL_TIME ( 16, 35, 49.00000000000000000, #136 ) ;
#98 = CALENDAR_DATE ( 2023, 13, 2 ) ;
#99 = EDGE_LOOP ( 'NONE', ( #14, #36, #171, #142 ) ) ;
#100 = CC_DESIGN_DATE_AND_TIME_ASSIGNMENT ( #131, #66, ( #229 ) ) ;
#101 = EDGE_LOOP ( 'NONE', ( #92, #248, #216, #178 ) ) ;
#102 = CIRCLE ( 'NONE', #53, 3.000000000000000444 ) ;
#103 = LOCAL_TIME ( 16, 35, 49.00000000000000000, #11 ) ;
#104 = EDGE_LOOP ( 'NONE', ( #24, #193 ) ) ;
#105 = PERSON_AND_ORGANIZATION_ROLE ( 'design_supplier' ) ;
#106 = ORIENTED_EDGE ( 'NONE', *, *, #31, .T. ) ;
#107 = DIRECTION ( 'NONE',  ( 1.000000000000000000, 0.000000000000000000, 0.000000000000000000 ) ) ;
#108 = DIRECTION ( 'NONE',  ( 0.000000000000000000, 0.000000000000000000, 1.000000000000000000 ) ) ;
#109 = DIRECTION ( 'NONE',  ( 1.000000000000000000, 0.000000000000000000, 0.000000000000000000 ) ) ;
#110 = CYLINDRICAL_SURFACE ( 'NONE', #118, 1.600000000000000089 ) ;
#111 = AXIS2_PLACEMENT_3D ( 'NONE', #5, #153, #51 ) ;
#112 = CALENDAR_DATE ( 2023, 13, 2 ) ;
#113 = EDGE_CURVE ( 'NONE', #55, #93, #116, .T. ) ;
#114 = APPROVAL_DATE_TIME ( #143, #140 ) ;
#115 = CARTESIAN_POINT ( 'NONE',  ( 0.000000000000000000, 0.000000000000000000, 3.000000000000000000 ) ) ;
#116 = CIRCLE ( 'NONE', #192, 1.600000000000000089 ) ;
#117 = ORIENTED_EDGE ( 'NONE', *, *, #163, .T. ) ;
#118 = AXIS2_PLACEMENT_3D ( 'NONE', #64, #251, #221 ) ;
#119 = PRODUCT_RELATED_PRODUCT_CATEGORY ( 'detail', '', ( #82 ) ) ;
#120 = CARTESIAN_POINT ( 'NONE',  ( 3.000000000000000444, 3.673940397442060361E-16, 3.000000000000000000 ) ) ;
#121 = PERSON_AND_ORGANIZATION_ROLE ( 'creator' ) ;
#122 = ORIENTED_EDGE ( 'NONE', *, *, #113, .F. ) ;
#123 = DIRECTION ( 'NONE',  ( -0.000000000000000000, -0.000000000000000000, -1.000000000000000000 ) ) ;
#124 = PERSON ( 'NEURÈENÝ', 'NEURÈENÝ', 'NEURÈENÝ', ('NEURÈENÝ'), ('NEURÈENÝ'), ('NEURÈENÝ') ) ;
#125 = ORIENTED_EDGE ( 'NONE', *, *, #150, .F. ) ;
#126 = CARTESIAN_POINT ( 'NONE',  ( 0.000000000000000000, 0.000000000000000000, 200.0000000000000000 ) ) ;
#127 = DIRECTION ( 'NONE',  ( 1.000000000000000000, 0.000000000000000000, 0.000000000000000000 ) ) ;
#128 = DIRECTION ( 'NONE',  ( 1.000000000000000000, 0.000000000000000000, -0.000000000000000000 ) ) ;
#129 = DIRECTION ( 'NONE',  ( -0.000000000000000000, -0.000000000000000000, -1.000000000000000000 ) ) ;
#130 = CARTESIAN_POINT ( 'NONE',  ( 0.000000000000000000, 0.000000000000000000, 0.000000000000000000 ) ) ;
#131 = DATE_AND_TIME ( #151, #168 ) ;
#132 = DIRECTION ( 'NONE',  ( 0.000000000000000000, 0.000000000000000000, 1.000000000000000000 ) ) ;
#133 = PERSON_AND_ORGANIZATION_ROLE ( 'creator' ) ;
#134 = EDGE_CURVE ( 'NONE', #205, #137, #238, .T. ) ;
#135 = AXIS2_PLACEMENT_3D ( 'NONE', #84, #129, #87 ) ;
#136 = COORDINATED_UNIVERSAL_TIME_OFFSET ( 1, 0, .AHEAD. ) ;
#137 = VERTEX_POINT ( 'NONE', #190 ) ;
#138 = VECTOR ( 'NONE', #47, 1000.000000000000000 ) ;
#139 = CARTESIAN_POINT ( 'NONE',  ( 0.000000000000000000, 0.000000000000000000, 0.000000000000000000 ) ) ;
#140 = APPROVAL ( #214, 'NEURÈENÝ' ) ;
#141 = CARTESIAN_POINT ( 'NONE',  ( -1.600000000000000089, 0.000000000000000000, 200.0000000000000000 ) ) ;
#142 = ORIENTED_EDGE ( 'NONE', *, *, #247, .T. ) ;
#143 = DATE_AND_TIME ( #164, #97 ) ;
#144 = ORIENTED_EDGE ( 'NONE', *, *, #226, .T. ) ;
#145 = PERSON_AND_ORGANIZATION ( #124, #239 ) ;
#146 = VECTOR ( 'NONE', #123, 1000.000000000000000 ) ;
#147 = LOCAL_TIME ( 16, 35, 49.00000000000000000, #220 ) ;
#148 = CC_DESIGN_PERSON_AND_ORGANIZATION_ASSIGNMENT ( #173, #121, ( #4 ) ) ;
#149 = CARTESIAN_POINT ( 'NONE',  ( 3.000000000000000444, 3.673940397442060361E-16, 3.000000000000000000 ) ) ;
#150 = EDGE_CURVE ( 'NONE', #35, #43, #29, .T. ) ;
#151 = CALENDAR_DATE ( 2023, 13, 2 ) ;
#152 = AXIS2_PLACEMENT_3D ( 'NONE', #115, #132, #211 ) ;
#153 = DIRECTION ( 'NONE',  ( 0.000000000000000000, 0.000000000000000000, 1.000000000000000000 ) ) ;
#154 = COORDINATED_UNIVERSAL_TIME_OFFSET ( 1, 0, .AHEAD. ) ;
#155 = DATE_AND_TIME ( #38, #147 ) ;
#156 = APPLICATION_PROTOCOL_DEFINITION ( 'international standard', 'config_control_design', 1994, #19 ) ;
#157 = ADVANCED_FACE ( 'NONE', ( #159 ), #2, .T. ) ;
#158 = CC_DESIGN_APPROVAL ( #140, ( #4 ) ) ;
#159 = FACE_OUTER_BOUND ( 'NONE', #83, .T. ) ;
#160 = PERSON_AND_ORGANIZATION ( #124, #239 ) ;
#161 = CARTESIAN_POINT ( 'NONE',  ( 0.000000000000000000, 0.000000000000000000, 200.0000000000000000 ) ) ;
#162 = CARTESIAN_POINT ( 'NONE',  ( 0.000000000000000000, 0.000000000000000000, 3.000000000000000000 ) ) ;
#163 = EDGE_CURVE ( 'NONE', #55, #205, #25, .T. ) ;
#164 = CALENDAR_DATE ( 2023, 13, 2 ) ;
#165 = EDGE_CURVE ( 'NONE', #77, #237, #56, .T. ) ;
#166 = SHAPE_DEFINITION_REPRESENTATION ( #58, #175 ) ;
#167 = AXIS2_PLACEMENT_3D ( 'NONE', #49, #209, #202 ) ;
#168 = LOCAL_TIME ( 16, 35, 49.00000000000000000, #154 ) ;
#169 = LOCAL_TIME ( 16, 35, 49.00000000000000000, #73 ) ;
#170 = CARTESIAN_POINT ( 'NONE',  ( 0.000000000000000000, 0.000000000000000000, 3.000000000000000000 ) ) ;
#171 = ORIENTED_EDGE ( 'NONE', *, *, #76, .T. ) ;
#172 = AXIS2_PLACEMENT_3D ( 'NONE', #161, #219, #235 ) ;
#173 = PERSON_AND_ORGANIZATION ( #124, #239 ) ;
#174 = FACE_OUTER_BOUND ( 'NONE', #10, .T. ) ;
#175 = ADVANCED_BREP_SHAPE_REPRESENTATION ( '5e45', ( #7, #232 ), #177 ) ;
#176 = ORIENTED_EDGE ( 'NONE', *, *, #113, .T. ) ;
#177 =( GEOMETRIC_REPRESENTATION_CONTEXT ( 3 ) GLOBAL_UNCERTAINTY_ASSIGNED_CONTEXT ( ( #223 ) ) GLOBAL_UNIT_ASSIGNED_CONTEXT ( ( #32, #234, #60 ) ) REPRESENTATION_CONTEXT ( 'NONE', 'WORKASPACE' ) );
#178 = ORIENTED_EDGE ( 'NONE', *, *, #31, .F. ) ;
#179 = EDGE_CURVE ( 'NONE', #43, #35, #102, .T. ) ;
#180 = CARTESIAN_POINT ( 'NONE',  ( 0.000000000000000000, 0.000000000000000000, 3.000000000000000000 ) ) ;
#181 = FACE_OUTER_BOUND ( 'NONE', #101, .T. ) ;
#182 = CARTESIAN_POINT ( 'NONE',  ( -3.000000000000000444, 0.000000000000000000, 0.000000000000000000 ) ) ;
#183 = AXIS2_PLACEMENT_3D ( 'NONE', #8, #210, #95 ) ;
#184 = CC_DESIGN_SECURITY_CLASSIFICATION ( #39, ( #4 ) ) ;
#185 = CIRCLE ( 'NONE', #57, 1.600000000000000089 ) ;
#186 = ADVANCED_FACE ( 'NONE', ( #181 ), #79, .T. ) ;
#187 = APPROVAL ( #230, 'NEURÈENÝ' ) ;
#188 = APPROVAL_ROLE ( '' ) ;
#189 = CARTESIAN_POINT ( 'NONE',  ( 0.000000000000000000, 0.000000000000000000, 3.000000000000000000 ) ) ;
#190 = CARTESIAN_POINT ( 'NONE',  ( -1.600000000000000089, 0.000000000000000000, 3.000000000000000000 ) ) ;
#191 = PERSON_AND_ORGANIZATION ( #124, #239 ) ;
#192 = AXIS2_PLACEMENT_3D ( 'NONE', #126, #213, #215 ) ;
#193 = ORIENTED_EDGE ( 'NONE', *, *, #134, .F. ) ;
#194 = EDGE_LOOP ( 'NONE', ( #233, #201 ) ) ;
#195 = APPROVAL_ROLE ( '' ) ;
#196 = ADVANCED_FACE ( 'NONE', ( #174 ), #204, .F. ) ;
#197 = APPROVAL_ROLE ( '' ) ;
#198 = FACE_OUTER_BOUND ( 'NONE', #249, .T. ) ;
#199 = EDGE_LOOP ( 'NONE', ( #122, #117, #245, #243 ) ) ;
#200 = FACE_OUTER_BOUND ( 'NONE', #194, .T. ) ;
#201 = ORIENTED_EDGE ( 'NONE', *, *, #165, .T. ) ;
#202 = DIRECTION ( 'NONE',  ( 1.000000000000000000, 0.000000000000000000, 0.000000000000000000 ) ) ;
#203 = EDGE_CURVE ( 'NONE', #237, #77, #227, .T. ) ;
#204 = PLANE ( 'NONE',  #27 ) ;
#205 = VERTEX_POINT ( 'NONE', #21 ) ;
#206 = ADVANCED_FACE ( 'NONE', ( #1 ), #110, .T. ) ;
#207 = PERSON_AND_ORGANIZATION ( #124, #239 ) ;
#208 = EDGE_CURVE ( 'NONE', #77, #43, #42, .T. ) ;
#209 = DIRECTION ( 'NONE',  ( 0.000000000000000000, 0.000000000000000000, 1.000000000000000000 ) ) ;
#210 = DIRECTION ( 'NONE',  ( 0.000000000000000000, 0.000000000000000000, 1.000000000000000000 ) ) ;
#211 = DIRECTION ( 'NONE',  ( 1.000000000000000000, 0.000000000000000000, 0.000000000000000000 ) ) ;
#212 = APPROVAL_STATUS ( 'not_yet_approved' ) ;
#213 = DIRECTION ( 'NONE',  ( 0.000000000000000000, 0.000000000000000000, 1.000000000000000000 ) ) ;
#214 = APPROVAL_STATUS ( 'not_yet_approved' ) ;
#215 = DIRECTION ( 'NONE',  ( 1.000000000000000000, 0.000000000000000000, 0.000000000000000000 ) ) ;
#216 = ORIENTED_EDGE ( 'NONE', *, *, #179, .T. ) ;
#217 = DIRECTION ( 'NONE',  ( 1.000000000000000000, 0.000000000000000000, 0.000000000000000000 ) ) ;
#218 = DIRECTION ( 'NONE',  ( 1.000000000000000000, 0.000000000000000000, -0.000000000000000000 ) ) ;
#219 = DIRECTION ( 'NONE',  ( -0.000000000000000000, -0.000000000000000000, -1.000000000000000000 ) ) ;
#220 = COORDINATED_UNIVERSAL_TIME_OFFSET ( 1, 0, .AHEAD. ) ;
#221 = DIRECTION ( 'NONE',  ( -1.000000000000000000, 0.000000000000000000, 0.000000000000000000 ) ) ;
#222 = DIRECTION ( 'NONE',  ( -0.000000000000000000, -0.000000000000000000, -1.000000000000000000 ) ) ;
#223 = UNCERTAINTY_MEASURE_WITH_UNIT (LENGTH_MEASURE( 1.000000000000000082E-05 ), #32, 'distance_accuracy_value', 'NONE');
#224 = APPROVAL_DATE_TIME ( #155, #46 ) ;
#225 = DIRECTION ( 'NONE',  ( 0.000000000000000000, 0.000000000000000000, 1.000000000000000000 ) ) ;
#226 = EDGE_CURVE ( 'NONE', #93, #55, #23, .T. ) ;
#227 = CIRCLE ( 'NONE', #86, 3.000000000000000444 ) ;
#228 = CLOSED_SHELL ( 'NONE', ( #206, #186, #16, #252, #196, #69, #157 ) ) ;
#229 = PRODUCT_DEFINITION ( 'NEZNÁMÝ', '', #4, #231 ) ;
#230 = APPROVAL_STATUS ( 'not_yet_approved' ) ;
#231 = DESIGN_CONTEXT ( 'detailed design', #88, 'design' ) ;
#232 = AXIS2_PLACEMENT_3D ( 'NONE', #130, #50, #217 ) ;
#233 = ORIENTED_EDGE ( 'NONE', *, *, #203, .T. ) ;
#234 =( NAMED_UNIT ( * ) PLANE_ANGLE_UNIT ( ) SI_UNIT ( $, .RADIAN. ) );
#235 = DIRECTION ( 'NONE',  ( -1.000000000000000000, 0.000000000000000000, 0.000000000000000000 ) ) ;
#236 = PLANE ( 'NONE',  #20 ) ;
#237 = VERTEX_POINT ( 'NONE', #81 ) ;
#238 = CIRCLE ( 'NONE', #152, 1.600000000000000089 ) ;
#239 = ORGANIZATION ( 'NEURÈENÝ', 'NEURÈENÝ', '' ) ;
#240 = ORIENTED_EDGE ( 'NONE', *, *, #150, .T. ) ;
#241 = CC_DESIGN_PERSON_AND_ORGANIZATION_ASSIGNMENT ( #191, #26, ( #82 ) ) ;
#242 = DIRECTION ( 'NONE',  ( -1.000000000000000000, 0.000000000000000000, 0.000000000000000000 ) ) ;
#243 = ORIENTED_EDGE ( 'NONE', *, *, #76, .F. ) ;
#244 = PERSON_AND_ORGANIZATION_ROLE ( 'classification_officer' ) ;
#245 = ORIENTED_EDGE ( 'NONE', *, *, #134, .T. ) ;
#246 = VECTOR ( 'NONE', #222, 1000.000000000000000 ) ;
#247 = EDGE_CURVE ( 'NONE', #137, #205, #185, .T. ) ;
#248 = ORIENTED_EDGE ( 'NONE', *, *, #208, .T. ) ;
#249 = EDGE_LOOP ( 'NONE', ( #89, #254, #106, #240 ) ) ;
#250 = FACE_OUTER_BOUND ( 'NONE', #99, .T. ) ;
#251 = DIRECTION ( 'NONE',  ( -0.000000000000000000, -0.000000000000000000, -1.000000000000000000 ) ) ;
#252 = ADVANCED_FACE ( 'NONE', ( #34, #200 ), #236, .T. ) ;
#253 = CARTESIAN_POINT ( 'NONE',  ( 1.600000000000000089, 1.959434878635765230E-16, 200.0000000000000000 ) ) ;
#254 = ORIENTED_EDGE ( 'NONE', *, *, #203, .F. ) ;
#255 = CC_DESIGN_APPROVAL ( #46, ( #39 ) ) ;
ENDSEC;
END-ISO-10303-21;
