ISO-10303-21;
HEADER;
FILE_DESCRIPTION (( 'STEP AP203' ),
    '1' );
FILE_NAME ('10bc.STEP',
    '2023-02-13T13:33:33',
    ( '' ),
    ( '' ),
    'SwSTEP 2.0',
    'SolidWorks 2019',
    '' );
FILE_SCHEMA (( 'CONFIG_CONTROL_DESIGN' ));
ENDSEC;

DATA;
#1 = EDGE_LOOP ( 'NONE', ( #172, #73, #123, #95 ) ) ;
#2 = DIRECTION ( 'NONE',  ( 1.000000000000000000, 0.000000000000000000, 0.000000000000000000 ) ) ;
#3 = DIRECTION ( 'NONE',  ( -0.000000000000000000, -0.000000000000000000, -1.000000000000000000 ) ) ;
#4 = AXIS2_PLACEMENT_3D ( 'NONE', #134, #23, #197 ) ;
#5 = EDGE_CURVE ( 'NONE', #193, #230, #188, .T. ) ;
#6 = CARTESIAN_POINT ( 'NONE',  ( 0.000000000000000000, 0.000000000000000000, 125.0000000000000000 ) ) ;
#7 = DIRECTION ( 'NONE',  ( 1.000000000000000000, 0.000000000000000000, -0.000000000000000000 ) ) ;
#8 = CARTESIAN_POINT ( 'NONE',  ( 0.000000000000000000, 0.000000000000000000, 5.000000000000000000 ) ) ;
#9 = APPROVAL ( #211, 'NEURÈENÝ' ) ;
#10 = AXIS2_PLACEMENT_3D ( 'NONE', #200, #55, #115 ) ;
#11 = CC_DESIGN_PERSON_AND_ORGANIZATION_ASSIGNMENT ( #111, #148, ( #240 ) ) ;
#12 = ORIENTED_EDGE ( 'NONE', *, *, #67, .T. ) ;
#13 = DATE_AND_TIME ( #249, #42 ) ;
#14 = DIRECTION ( 'NONE',  ( -0.000000000000000000, -0.000000000000000000, -1.000000000000000000 ) ) ;
#15 = EDGE_LOOP ( 'NONE', ( #196, #214, #232, #145 ) ) ;
#16 = CALENDAR_DATE ( 2023, 13, 2 ) ;
#17 = DIRECTION ( 'NONE',  ( -1.000000000000000000, 0.000000000000000000, 0.000000000000000000 ) ) ;
#18 = CIRCLE ( 'NONE', #157, 7.000000000000000000 ) ;
#19 = AXIS2_PLACEMENT_3D ( 'NONE', #198, #253, #235 ) ;
#20 = ORIENTED_EDGE ( 'NONE', *, *, #39, .F. ) ;
#21 = DIRECTION ( 'NONE',  ( 0.000000000000000000, 0.000000000000000000, 1.000000000000000000 ) ) ;
#22 = CARTESIAN_POINT ( 'NONE',  ( -7.000000000000000000, 0.000000000000000000, 0.000000000000000000 ) ) ;
#23 = DIRECTION ( 'NONE',  ( 0.000000000000000000, 0.000000000000000000, 1.000000000000000000 ) ) ;
#24 = CARTESIAN_POINT ( 'NONE',  ( 4.000000000000000000, 4.898587196589412829E-16, 125.0000000000000000 ) ) ;
#25 = FACE_OUTER_BOUND ( 'NONE', #76, .T. ) ;
#26 = PLANE ( 'NONE',  #83 ) ;
#27 = CYLINDRICAL_SURFACE ( 'NONE', #208, 7.000000000000000000 ) ;
#28 = ADVANCED_FACE ( 'NONE', ( #92 ), #165, .T. ) ;
#29 = DIRECTION ( 'NONE',  ( 0.000000000000000000, 0.000000000000000000, 1.000000000000000000 ) ) ;
#30 = ORIENTED_EDGE ( 'NONE', *, *, #63, .F. ) ;
#31 = VERTEX_POINT ( 'NONE', #59 ) ;
#32 = CIRCLE ( 'NONE', #223, 4.000000000000000000 ) ;
#33 = EDGE_LOOP ( 'NONE', ( #51, #125, #209, #89 ) ) ;
#34 = VERTEX_POINT ( 'NONE', #136 ) ;
#35 = CC_DESIGN_PERSON_AND_ORGANIZATION_ASSIGNMENT ( #186, #162, ( #240 ) ) ;
#36 = CARTESIAN_POINT ( 'NONE',  ( 0.000000000000000000, 0.000000000000000000, 0.000000000000000000 ) ) ;
#37 = CYLINDRICAL_SURFACE ( 'NONE', #121, 4.000000000000000000 ) ;
#38 = LOCAL_TIME ( 14, 33, 33.00000000000000000, #91 ) ;
#39 = EDGE_CURVE ( 'NONE', #193, #114, #69, .T. ) ;
#40 = DIRECTION ( 'NONE',  ( 1.000000000000000000, 0.000000000000000000, 0.000000000000000000 ) ) ;
#41 = ADVANCED_FACE ( 'NONE', ( #78 ), #238, .T. ) ;
#42 = LOCAL_TIME ( 14, 33, 33.00000000000000000, #64 ) ;
#43 = APPROVAL_PERSON_ORGANIZATION ( #81, #86, #60 ) ;
#44 = ADVANCED_FACE ( 'NONE', ( #179, #25 ), #54, .T. ) ;
#45 = VERTEX_POINT ( 'NONE', #154 ) ;
#46 = APPROVAL_ROLE ( '' ) ;
#47 = ORIENTED_EDGE ( 'NONE', *, *, #110, .F. ) ;
#48 = APPROVAL_STATUS ( 'not_yet_approved' ) ;
#49 = EDGE_CURVE ( 'NONE', #34, #31, #242, .T. ) ;
#50 = VECTOR ( 'NONE', #233, 1000.000000000000000 ) ;
#51 = ORIENTED_EDGE ( 'NONE', *, *, #5, .F. ) ;
#52 = EDGE_LOOP ( 'NONE', ( #30, #66 ) ) ;
#53 = ADVANCED_FACE ( 'NONE', ( #133 ), #37, .T. ) ;
#54 = PLANE ( 'NONE',  #4 ) ;
#55 = DIRECTION ( 'NONE',  ( 0.000000000000000000, 0.000000000000000000, 1.000000000000000000 ) ) ;
#56 = DIRECTION ( 'NONE',  ( 1.000000000000000000, 0.000000000000000000, 0.000000000000000000 ) ) ;
#57 = DIRECTION ( 'NONE',  ( -0.000000000000000000, -0.000000000000000000, -1.000000000000000000 ) ) ;
#58 = DIRECTION ( 'NONE',  ( 0.000000000000000000, 0.000000000000000000, 1.000000000000000000 ) ) ;
#59 = CARTESIAN_POINT ( 'NONE',  ( -7.000000000000000000, 0.000000000000000000, 5.000000000000000000 ) ) ;
#60 = APPROVAL_ROLE ( '' ) ;
#61 = CALENDAR_DATE ( 2023, 13, 2 ) ;
#62 = APPLICATION_PROTOCOL_DEFINITION ( 'international standard', 'config_control_design', 1994, #84 ) ;
#63 = EDGE_CURVE ( 'NONE', #185, #230, #244, .T. ) ;
#64 = COORDINATED_UNIVERSAL_TIME_OFFSET ( 1, 0, .AHEAD. ) ;
#65 = PERSON_AND_ORGANIZATION_ROLE ( 'creator' ) ;
#66 = ORIENTED_EDGE ( 'NONE', *, *, #207, .F. ) ;
#67 = EDGE_CURVE ( 'NONE', #31, #34, #18, .T. ) ;
#68 = ORIENTED_EDGE ( 'NONE', *, *, #5, .T. ) ;
#69 = CIRCLE ( 'NONE', #227, 4.000000000000000000 ) ;
#70 = DATE_TIME_ROLE ( 'classification_date' ) ;
#71 = DATE_AND_TIME ( #190, #85 ) ;
#72 = VECTOR ( 'NONE', #57, 1000.000000000000000 ) ;
#73 = ORIENTED_EDGE ( 'NONE', *, *, #222, .T. ) ;
#74 = LINE ( 'NONE', #150, #50 ) ;
#75 = CARTESIAN_POINT ( 'NONE',  ( 0.000000000000000000, 0.000000000000000000, 5.000000000000000000 ) ) ;
#76 = EDGE_LOOP ( 'NONE', ( #12, #247 ) ) ;
#77 =( LENGTH_UNIT ( ) NAMED_UNIT ( * ) SI_UNIT ( .MILLI., .METRE. ) );
#78 = FACE_OUTER_BOUND ( 'NONE', #113, .T. ) ;
#79 = CARTESIAN_POINT ( 'NONE',  ( 4.000000000000000000, 4.898587196589412829E-16, 5.000000000000000000 ) ) ;
#80 = ADVANCED_FACE ( 'NONE', ( #220 ), #26, .F. ) ;
#81 = PERSON_AND_ORGANIZATION ( #212, #201 ) ;
#82 = ADVANCED_FACE ( 'NONE', ( #156 ), #182, .T. ) ;
#83 = AXIS2_PLACEMENT_3D ( 'NONE', #181, #29, #7 ) ;
#84 = APPLICATION_CONTEXT ( 'configuration controlled 3d designs of mechanical parts and assemblies' ) ;
#85 = LOCAL_TIME ( 14, 33, 33.00000000000000000, #87 ) ;
#86 = APPROVAL ( #241, 'NEURÈENÝ' ) ;
#87 = COORDINATED_UNIVERSAL_TIME_OFFSET ( 1, 0, .AHEAD. ) ;
#88 = CLOSED_SHELL ( 'NONE', ( #53, #82, #96, #44, #80, #28, #41 ) ) ;
#89 = ORIENTED_EDGE ( 'NONE', *, *, #63, .T. ) ;
#90 = CC_DESIGN_APPROVAL ( #86, ( #189 ) ) ;
#91 = COORDINATED_UNIVERSAL_TIME_OFFSET ( 1, 0, .AHEAD. ) ;
#92 = FACE_OUTER_BOUND ( 'NONE', #33, .T. ) ;
#93 = VERTEX_POINT ( 'NONE', #22 ) ;
#94 = AXIS2_PLACEMENT_3D ( 'NONE', #132, #237, #56 ) ;
#95 = ORIENTED_EDGE ( 'NONE', *, *, #106, .F. ) ;
#96 = ADVANCED_FACE ( 'NONE', ( #137 ), #27, .T. ) ;
#97 = CARTESIAN_POINT ( 'NONE',  ( 0.000000000000000000, 0.000000000000000000, 5.000000000000000000 ) ) ;
#98 = DIRECTION ( 'NONE',  ( 0.000000000000000000, 0.000000000000000000, 1.000000000000000000 ) ) ;
#99 = EDGE_CURVE ( 'NONE', #114, #185, #128, .T. ) ;
#100 = CIRCLE ( 'NONE', #246, 4.000000000000000000 ) ;
#101 =( NAMED_UNIT ( * ) PLANE_ANGLE_UNIT ( ) SI_UNIT ( $, .RADIAN. ) );
#102 = DIRECTION ( 'NONE',  ( 0.000000000000000000, 0.000000000000000000, 1.000000000000000000 ) ) ;
#103 = DIRECTION ( 'NONE',  ( 0.000000000000000000, 0.000000000000000000, 1.000000000000000000 ) ) ;
#104 = MECHANICAL_CONTEXT ( 'NONE', #84, 'mechanical' ) ;
#105 = AXIS2_PLACEMENT_3D ( 'NONE', #219, #58, #216 ) ;
#106 = EDGE_CURVE ( 'NONE', #31, #93, #215, .T. ) ;
#107 = APPROVAL_PERSON_ORGANIZATION ( #236, #9, #167 ) ;
#108 = APPROVAL_DATE_TIME ( #250, #86 ) ;
#109 = ORIENTED_EDGE ( 'NONE', *, *, #99, .F. ) ;
#110 = EDGE_CURVE ( 'NONE', #93, #45, #229, .T. ) ;
#111 = PERSON_AND_ORGANIZATION ( #212, #201 ) ;
#112 = VECTOR ( 'NONE', #14, 1000.000000000000000 ) ;
#113 = EDGE_LOOP ( 'NONE', ( #143, #170 ) ) ;
#114 = VERTEX_POINT ( 'NONE', #199 ) ;
#115 = DIRECTION ( 'NONE',  ( 1.000000000000000000, 0.000000000000000000, 0.000000000000000000 ) ) ;
#116 = DIRECTION ( 'NONE',  ( 0.000000000000000000, 0.000000000000000000, 1.000000000000000000 ) ) ;
#117 = CARTESIAN_POINT ( 'NONE',  ( 0.000000000000000000, 0.000000000000000000, 125.0000000000000000 ) ) ;
#118 = DIRECTION ( 'NONE',  ( -0.000000000000000000, -0.000000000000000000, -1.000000000000000000 ) ) ;
#119 = EDGE_CURVE ( 'NONE', #114, #193, #32, .T. ) ;
#120 = DIRECTION ( 'NONE',  ( 1.000000000000000000, 0.000000000000000000, 0.000000000000000000 ) ) ;
#121 = AXIS2_PLACEMENT_3D ( 'NONE', #217, #118, #140 ) ;
#122 = DIRECTION ( 'NONE',  ( -0.000000000000000000, -0.000000000000000000, -1.000000000000000000 ) ) ;
#123 = ORIENTED_EDGE ( 'NONE', *, *, #151, .T. ) ;
#124 = DATE_AND_TIME ( #16, #38 ) ;
#125 = ORIENTED_EDGE ( 'NONE', *, *, #119, .F. ) ;
#126 = DIRECTION ( 'NONE',  ( -1.000000000000000000, 0.000000000000000000, 0.000000000000000000 ) ) ;
#127 = AXIS2_PLACEMENT_3D ( 'NONE', #138, #102, #178 ) ;
#128 = LINE ( 'NONE', #169, #160 ) ;
#129 = UNCERTAINTY_MEASURE_WITH_UNIT (LENGTH_MEASURE( 1.000000000000000082E-05 ), #77, 'distance_accuracy_value', 'NONE');
#130 = DIRECTION ( 'NONE',  ( -1.000000000000000000, 0.000000000000000000, 0.000000000000000000 ) ) ;
#131 = CIRCLE ( 'NONE', #10, 7.000000000000000000 ) ;
#132 = CARTESIAN_POINT ( 'NONE',  ( 0.000000000000000000, 0.000000000000000000, 5.000000000000000000 ) ) ;
#133 = FACE_OUTER_BOUND ( 'NONE', #168, .T. ) ;
#134 = CARTESIAN_POINT ( 'NONE',  ( 0.000000000000000000, 0.000000000000000000, 5.000000000000000000 ) ) ;
#135 = CC_DESIGN_SECURITY_CLASSIFICATION ( #146, ( #240 ) ) ;
#136 = CARTESIAN_POINT ( 'NONE',  ( 7.000000000000000000, 8.572527594031473190E-16, 5.000000000000000000 ) ) ;
#137 = FACE_OUTER_BOUND ( 'NONE', #15, .T. ) ;
#138 = CARTESIAN_POINT ( 'NONE',  ( 0.000000000000000000, 0.000000000000000000, 5.000000000000000000 ) ) ;
#139 = COORDINATED_UNIVERSAL_TIME_OFFSET ( 1, 0, .AHEAD. ) ;
#140 = DIRECTION ( 'NONE',  ( -1.000000000000000000, 0.000000000000000000, 0.000000000000000000 ) ) ;
#141 = CC_DESIGN_DATE_AND_TIME_ASSIGNMENT ( #13, #70, ( #146 ) ) ;
#142 = DESIGN_CONTEXT ( 'detailed design', #243, 'design' ) ;
#143 = ORIENTED_EDGE ( 'NONE', *, *, #119, .T. ) ;
#144 = COORDINATED_UNIVERSAL_TIME_OFFSET ( 1, 0, .AHEAD. ) ;
#145 = ORIENTED_EDGE ( 'NONE', *, *, #110, .T. ) ;
#146 = SECURITY_CLASSIFICATION ( '', '', #210 ) ;
#147 = ADVANCED_BREP_SHAPE_REPRESENTATION ( '10bc', ( #191, #176 ), #202 ) ;
#148 = PERSON_AND_ORGANIZATION_ROLE ( 'creator' ) ;
#149 = DATE_AND_TIME ( #251, #153 ) ;
#150 = CARTESIAN_POINT ( 'NONE',  ( 7.000000000000000000, 8.572527594031473190E-16, 5.000000000000000000 ) ) ;
#151 = EDGE_CURVE ( 'NONE', #45, #93, #131, .T. ) ;
#152 = CARTESIAN_POINT ( 'NONE',  ( -7.000000000000000000, 0.000000000000000000, 5.000000000000000000 ) ) ;
#153 = LOCAL_TIME ( 14, 33, 33.00000000000000000, #144 ) ;
#154 = CARTESIAN_POINT ( 'NONE',  ( 7.000000000000000000, 8.572527594031473190E-16, 0.000000000000000000 ) ) ;
#155 = CARTESIAN_POINT ( 'NONE',  ( -4.000000000000000000, 0.000000000000000000, 5.000000000000000000 ) ) ;
#156 = FACE_OUTER_BOUND ( 'NONE', #1, .T. ) ;
#157 = AXIS2_PLACEMENT_3D ( 'NONE', #221, #159, #40 ) ;
#158 = LOCAL_TIME ( 14, 33, 33.00000000000000000, #139 ) ;
#159 = DIRECTION ( 'NONE',  ( 0.000000000000000000, 0.000000000000000000, 1.000000000000000000 ) ) ;
#160 = VECTOR ( 'NONE', #173, 1000.000000000000000 ) ;
#161 = APPLICATION_PROTOCOL_DEFINITION ( 'international standard', 'config_control_design', 1994, #243 ) ;
#162 = PERSON_AND_ORGANIZATION_ROLE ( 'design_supplier' ) ;
#163 = PERSON_AND_ORGANIZATION ( #212, #201 ) ;
#164 = EDGE_LOOP ( 'NONE', ( #47, #226 ) ) ;
#165 = CYLINDRICAL_SURFACE ( 'NONE', #203, 4.000000000000000000 ) ;
#166 = APPROVAL_DATE_TIME ( #124, #205 ) ;
#167 = APPROVAL_ROLE ( '' ) ;
#168 = EDGE_LOOP ( 'NONE', ( #20, #68, #224, #109 ) ) ;
#169 = CARTESIAN_POINT ( 'NONE',  ( -4.000000000000000000, 0.000000000000000000, 125.0000000000000000 ) ) ;
#170 = ORIENTED_EDGE ( 'NONE', *, *, #39, .T. ) ;
#171 = APPROVAL_DATE_TIME ( #149, #9 ) ;
#172 = ORIENTED_EDGE ( 'NONE', *, *, #49, .F. ) ;
#173 = DIRECTION ( 'NONE',  ( -0.000000000000000000, -0.000000000000000000, -1.000000000000000000 ) ) ;
#174 = DIRECTION ( 'NONE',  ( -0.000000000000000000, -0.000000000000000000, -1.000000000000000000 ) ) ;
#175 = DIRECTION ( 'NONE',  ( 1.000000000000000000, 0.000000000000000000, 0.000000000000000000 ) ) ;
#176 = AXIS2_PLACEMENT_3D ( 'NONE', #36, #116, #120 ) ;
#177 = DIRECTION ( 'NONE',  ( 1.000000000000000000, 0.000000000000000000, 0.000000000000000000 ) ) ;
#178 = DIRECTION ( 'NONE',  ( 1.000000000000000000, 0.000000000000000000, 0.000000000000000000 ) ) ;
#179 = FACE_BOUND ( 'NONE', #52, .T. ) ;
#180 = PERSON_AND_ORGANIZATION_ROLE ( 'design_owner' ) ;
#181 = CARTESIAN_POINT ( 'NONE',  ( 0.000000000000000000, 0.000000000000000000, 0.000000000000000000 ) ) ;
#182 = CYLINDRICAL_SURFACE ( 'NONE', #204, 7.000000000000000000 ) ;
#183 = PERSON_AND_ORGANIZATION ( #212, #201 ) ;
#184 = PRODUCT_RELATED_PRODUCT_CATEGORY ( 'detail', '', ( #231 ) ) ;
#185 = VERTEX_POINT ( 'NONE', #155 ) ;
#186 = PERSON_AND_ORGANIZATION ( #212, #201 ) ;
#187 = CC_DESIGN_APPROVAL ( #9, ( #146 ) ) ;
#188 = LINE ( 'NONE', #206, #112 ) ;
#189 = PRODUCT_DEFINITION ( 'NEZNÁMÝ', '', #240, #142 ) ;
#190 = CALENDAR_DATE ( 2023, 13, 2 ) ;
#191 = MANIFOLD_SOLID_BREP ( 'Pøidat vysunutím3', #88 ) ;
#192 = DATE_TIME_ROLE ( 'creation_date' ) ;
#193 = VERTEX_POINT ( 'NONE', #24 ) ;
#194 = PRODUCT_DEFINITION_SHAPE ( 'NONE', 'NONE',  #189 ) ;
#195 = CC_DESIGN_DATE_AND_TIME_ASSIGNMENT ( #71, #192, ( #189 ) ) ;
#196 = ORIENTED_EDGE ( 'NONE', *, *, #222, .F. ) ;
#197 = DIRECTION ( 'NONE',  ( 1.000000000000000000, 0.000000000000000000, -0.000000000000000000 ) ) ;
#198 = CARTESIAN_POINT ( 'NONE',  ( 0.000000000000000000, 0.000000000000000000, 0.000000000000000000 ) ) ;
#199 = CARTESIAN_POINT ( 'NONE',  ( -4.000000000000000000, 0.000000000000000000, 125.0000000000000000 ) ) ;
#200 = CARTESIAN_POINT ( 'NONE',  ( 0.000000000000000000, 0.000000000000000000, 0.000000000000000000 ) ) ;
#201 = ORGANIZATION ( 'NEURÈENÝ', 'NEURÈENÝ', '' ) ;
#202 =( GEOMETRIC_REPRESENTATION_CONTEXT ( 3 ) GLOBAL_UNCERTAINTY_ASSIGNED_CONTEXT ( ( #129 ) ) GLOBAL_UNIT_ASSIGNED_CONTEXT ( ( #77, #101, #239 ) ) REPRESENTATION_CONTEXT ( 'NONE', 'WORKASPACE' ) );
#203 = AXIS2_PLACEMENT_3D ( 'NONE', #248, #174, #130 ) ;
#204 = AXIS2_PLACEMENT_3D ( 'NONE', #75, #3, #17 ) ;
#205 = APPROVAL ( #48, 'NEURÈENÝ' ) ;
#206 = CARTESIAN_POINT ( 'NONE',  ( 4.000000000000000000, 4.898587196589412829E-16, 125.0000000000000000 ) ) ;
#207 = EDGE_CURVE ( 'NONE', #230, #185, #100, .T. ) ;
#208 = AXIS2_PLACEMENT_3D ( 'NONE', #8, #122, #126 ) ;
#209 = ORIENTED_EDGE ( 'NONE', *, *, #99, .T. ) ;
#210 = SECURITY_CLASSIFICATION_LEVEL ( 'unclassified' ) ;
#211 = APPROVAL_STATUS ( 'not_yet_approved' ) ;
#212 = PERSON ( 'NEURÈENÝ', 'NEURÈENÝ', 'NEURÈENÝ', ('NEURÈENÝ'), ('NEURÈENÝ'), ('NEURÈENÝ') ) ;
#213 = PERSON_AND_ORGANIZATION_ROLE ( 'classification_officer' ) ;
#214 = ORIENTED_EDGE ( 'NONE', *, *, #67, .F. ) ;
#215 = LINE ( 'NONE', #152, #72 ) ;
#216 = DIRECTION ( 'NONE',  ( 1.000000000000000000, 0.000000000000000000, -0.000000000000000000 ) ) ;
#217 = CARTESIAN_POINT ( 'NONE',  ( 0.000000000000000000, 0.000000000000000000, 125.0000000000000000 ) ) ;
#218 = APPROVAL_PERSON_ORGANIZATION ( #225, #205, #46 ) ;
#219 = CARTESIAN_POINT ( 'NONE',  ( 0.000000000000000000, 0.000000000000000000, 125.0000000000000000 ) ) ;
#220 = FACE_OUTER_BOUND ( 'NONE', #164, .T. ) ;
#221 = CARTESIAN_POINT ( 'NONE',  ( 0.000000000000000000, 0.000000000000000000, 5.000000000000000000 ) ) ;
#222 = EDGE_CURVE ( 'NONE', #34, #45, #74, .T. ) ;
#223 = AXIS2_PLACEMENT_3D ( 'NONE', #117, #98, #2 ) ;
#224 = ORIENTED_EDGE ( 'NONE', *, *, #207, .T. ) ;
#225 = PERSON_AND_ORGANIZATION ( #212, #201 ) ;
#226 = ORIENTED_EDGE ( 'NONE', *, *, #151, .F. ) ;
#227 = AXIS2_PLACEMENT_3D ( 'NONE', #6, #103, #177 ) ;
#228 = PERSON_AND_ORGANIZATION ( #212, #201 ) ;
#229 = CIRCLE ( 'NONE', #19, 7.000000000000000000 ) ;
#230 = VERTEX_POINT ( 'NONE', #79 ) ;
#231 = PRODUCT ( '10bc', '10bc', '', ( #104 ) ) ;
#232 = ORIENTED_EDGE ( 'NONE', *, *, #106, .T. ) ;
#233 = DIRECTION ( 'NONE',  ( -0.000000000000000000, -0.000000000000000000, -1.000000000000000000 ) ) ;
#234 = CC_DESIGN_PERSON_AND_ORGANIZATION_ASSIGNMENT ( #183, #180, ( #231 ) ) ;
#235 = DIRECTION ( 'NONE',  ( 1.000000000000000000, 0.000000000000000000, 0.000000000000000000 ) ) ;
#236 = PERSON_AND_ORGANIZATION ( #212, #201 ) ;
#237 = DIRECTION ( 'NONE',  ( 0.000000000000000000, 0.000000000000000000, 1.000000000000000000 ) ) ;
#238 = PLANE ( 'NONE',  #105 ) ;
#239 =( NAMED_UNIT ( * ) SI_UNIT ( $, .STERADIAN. ) SOLID_ANGLE_UNIT ( ) );
#240 = PRODUCT_DEFINITION_FORMATION_WITH_SPECIFIED_SOURCE ( 'LIBOVOLNÝ', '', #231, .NOT_KNOWN. ) ;
#241 = APPROVAL_STATUS ( 'not_yet_approved' ) ;
#242 = CIRCLE ( 'NONE', #94, 7.000000000000000000 ) ;
#243 = APPLICATION_CONTEXT ( 'configuration controlled 3d designs of mechanical parts and assemblies' ) ;
#244 = CIRCLE ( 'NONE', #127, 4.000000000000000000 ) ;
#245 = CC_DESIGN_PERSON_AND_ORGANIZATION_ASSIGNMENT ( #228, #213, ( #146 ) ) ;
#246 = AXIS2_PLACEMENT_3D ( 'NONE', #97, #21, #175 ) ;
#247 = ORIENTED_EDGE ( 'NONE', *, *, #49, .T. ) ;
#248 = CARTESIAN_POINT ( 'NONE',  ( 0.000000000000000000, 0.000000000000000000, 125.0000000000000000 ) ) ;
#249 = CALENDAR_DATE ( 2023, 13, 2 ) ;
#250 = DATE_AND_TIME ( #61, #158 ) ;
#251 = CALENDAR_DATE ( 2023, 13, 2 ) ;
#252 = CC_DESIGN_APPROVAL ( #205, ( #240 ) ) ;
#253 = DIRECTION ( 'NONE',  ( 0.000000000000000000, 0.000000000000000000, 1.000000000000000000 ) ) ;
#254 = CC_DESIGN_PERSON_AND_ORGANIZATION_ASSIGNMENT ( #163, #65, ( #189 ) ) ;
#255 = SHAPE_DEFINITION_REPRESENTATION ( #194, #147 ) ;
ENDSEC;
END-ISO-10303-21;
