ISO-10303-21;
HEADER;
FILE_DESCRIPTION (( 'STEP AP203' ),
    '1' );
FILE_NAME ('9b4f.STEP',
    '2023-02-13T07:54:59',
    ( '' ),
    ( '' ),
    'SwSTEP 2.0',
    'SolidWorks 2019',
    '' );
FILE_SCHEMA (( 'CONFIG_CONTROL_DESIGN' ));
ENDSEC;

DATA;
#1 = APPROVAL_ROLE ( '' ) ;
#2 = ORIENTED_EDGE ( 'NONE', *, *, #245, .F. ) ;
#3 = EDGE_CURVE ( 'NONE', #20, #64, #115, .T. ) ;
#4 = ORIENTED_EDGE ( 'NONE', *, *, #3, .T. ) ;
#5 = ORIENTED_EDGE ( 'NONE', *, *, #106, .F. ) ;
#6 = PERSON_AND_ORGANIZATION ( #58, #27 ) ;
#7 = PERSON_AND_ORGANIZATION ( #58, #27 ) ;
#8 = CARTESIAN_POINT ( 'NONE',  ( 0.000000000000000000, 0.000000000000000000, 100.0000000000000000 ) ) ;
#9 = COORDINATED_UNIVERSAL_TIME_OFFSET ( 1, 0, .AHEAD. ) ;
#10 = CYLINDRICAL_SURFACE ( 'NONE', #118, 13.00000000000000178 ) ;
#11 = AXIS2_PLACEMENT_3D ( 'NONE', #104, #181, #51 ) ;
#12 = CC_DESIGN_PERSON_AND_ORGANIZATION_ASSIGNMENT ( #6, #92, ( #49 ) ) ;
#13 = COORDINATED_UNIVERSAL_TIME_OFFSET ( 1, 0, .AHEAD. ) ;
#14 = DIRECTION ( 'NONE',  ( 1.000000000000000000, 0.000000000000000000, -0.000000000000000000 ) ) ;
#15 = DIRECTION ( 'NONE',  ( 1.000000000000000000, 0.000000000000000000, 0.000000000000000000 ) ) ;
#16 = LINE ( 'NONE', #145, #220 ) ;
#17 = PERSON_AND_ORGANIZATION ( #58, #27 ) ;
#18 = VECTOR ( 'NONE', #152, 1000.000000000000000 ) ;
#19 = ORIENTED_EDGE ( 'NONE', *, *, #30, .T. ) ;
#20 = VERTEX_POINT ( 'NONE', #45 ) ;
#21 = CIRCLE ( 'NONE', #105, 10.00000000000000000 ) ;
#22 = DIRECTION ( 'NONE',  ( 1.000000000000000000, 0.000000000000000000, 0.000000000000000000 ) ) ;
#23 = CALENDAR_DATE ( 2023, 13, 2 ) ;
#24 = DIRECTION ( 'NONE',  ( 0.000000000000000000, 0.000000000000000000, 1.000000000000000000 ) ) ;
#25 = CIRCLE ( 'NONE', #133, 13.00000000000000178 ) ;
#26 = DATE_AND_TIME ( #82, #244 ) ;
#27 = ORGANIZATION ( 'NEURÈENÝ', 'NEURÈENÝ', '' ) ;
#28 = EDGE_CURVE ( 'NONE', #38, #213, #42, .T. ) ;
#29 = PRODUCT_DEFINITION ( 'NEZNÁMÝ', '', #144, #75 ) ;
#30 = EDGE_CURVE ( 'NONE', #53, #20, #25, .T. ) ;
#31 = CARTESIAN_POINT ( 'NONE',  ( 0.000000000000000000, 0.000000000000000000, 8.000000000000000000 ) ) ;
#32 = DIRECTION ( 'NONE',  ( -0.000000000000000000, -0.000000000000000000, -1.000000000000000000 ) ) ;
#33 = CARTESIAN_POINT ( 'NONE',  ( 0.000000000000000000, 0.000000000000000000, 8.000000000000000000 ) ) ;
#34 = PLANE ( 'NONE',  #123 ) ;
#35 = UNCERTAINTY_MEASURE_WITH_UNIT (LENGTH_MEASURE( 1.000000000000000082E-05 ), #110, 'distance_accuracy_value', 'NONE');
#36 = VERTEX_POINT ( 'NONE', #41 ) ;
#37 = CARTESIAN_POINT ( 'NONE',  ( 0.000000000000000000, 0.000000000000000000, 8.000000000000000000 ) ) ;
#38 = VERTEX_POINT ( 'NONE', #174 ) ;
#39 = ORIENTED_EDGE ( 'NONE', *, *, #160, .T. ) ;
#40 = ORIENTED_EDGE ( 'NONE', *, *, #169, .F. ) ;
#41 = CARTESIAN_POINT ( 'NONE',  ( -10.00000000000000000, 0.000000000000000000, 8.000000000000000000 ) ) ;
#42 = LINE ( 'NONE', #143, #177 ) ;
#43 = PRODUCT ( '9b4f', '9b4f', '', ( #237 ) ) ;
#44 = PRODUCT_RELATED_PRODUCT_CATEGORY ( 'detail', '', ( #43 ) ) ;
#45 = CARTESIAN_POINT ( 'NONE',  ( 13.00000000000000178, 1.592040838891559293E-15, 8.000000000000000000 ) ) ;
#46 = DATE_AND_TIME ( #23, #204 ) ;
#47 = EDGE_CURVE ( 'NONE', #131, #64, #171, .T. ) ;
#48 = PERSON_AND_ORGANIZATION ( #58, #27 ) ;
#49 = SECURITY_CLASSIFICATION ( '', '', #168 ) ;
#50 = APPROVAL ( #140, 'NEURÈENÝ' ) ;
#51 = DIRECTION ( 'NONE',  ( 1.000000000000000000, 0.000000000000000000, -0.000000000000000000 ) ) ;
#52 = CC_DESIGN_APPROVAL ( #247, ( #29 ) ) ;
#53 = VERTEX_POINT ( 'NONE', #194 ) ;
#54 = APPROVAL_PERSON_ORGANIZATION ( #221, #247, #175 ) ;
#55 = DIRECTION ( 'NONE',  ( -0.000000000000000000, -0.000000000000000000, -1.000000000000000000 ) ) ;
#56 = EDGE_LOOP ( 'NONE', ( #19, #39 ) ) ;
#57 = CYLINDRICAL_SURFACE ( 'NONE', #93, 10.00000000000000000 ) ;
#58 = PERSON ( 'NEURÈENÝ', 'NEURÈENÝ', 'NEURÈENÝ', ('NEURÈENÝ'), ('NEURÈENÝ'), ('NEURÈENÝ') ) ;
#59 = EDGE_LOOP ( 'NONE', ( #76, #119 ) ) ;
#60 = APPLICATION_PROTOCOL_DEFINITION ( 'international standard', 'config_control_design', 1994, #240 ) ;
#61 = APPROVAL_PERSON_ORGANIZATION ( #68, #50, #205 ) ;
#62 = ORIENTED_EDGE ( 'NONE', *, *, #30, .F. ) ;
#63 = EDGE_CURVE ( 'NONE', #218, #38, #202, .T. ) ;
#64 = VERTEX_POINT ( 'NONE', #99 ) ;
#65 = ORIENTED_EDGE ( 'NONE', *, *, #160, .F. ) ;
#66 = CC_DESIGN_PERSON_AND_ORGANIZATION_ASSIGNMENT ( #17, #197, ( #144 ) ) ;
#67 = FACE_OUTER_BOUND ( 'NONE', #56, .T. ) ;
#68 = PERSON_AND_ORGANIZATION ( #58, #27 ) ;
#69 = CARTESIAN_POINT ( 'NONE',  ( 0.000000000000000000, 0.000000000000000000, 100.0000000000000000 ) ) ;
#70 = ADVANCED_FACE ( 'NONE', ( #96 ), #135, .T. ) ;
#71 = ORIENTED_EDGE ( 'NONE', *, *, #169, .T. ) ;
#72 = AXIS2_PLACEMENT_3D ( 'NONE', #109, #130, #158 ) ;
#73 = DIRECTION ( 'NONE',  ( -0.000000000000000000, -0.000000000000000000, -1.000000000000000000 ) ) ;
#74 =( NAMED_UNIT ( * ) PLANE_ANGLE_UNIT ( ) SI_UNIT ( $, .RADIAN. ) );
#75 = DESIGN_CONTEXT ( 'detailed design', #146, 'design' ) ;
#76 = ORIENTED_EDGE ( 'NONE', *, *, #63, .T. ) ;
#77 = ORIENTED_EDGE ( 'NONE', *, *, #209, .F. ) ;
#78 = CC_DESIGN_SECURITY_CLASSIFICATION ( #49, ( #144 ) ) ;
#79 = CARTESIAN_POINT ( 'NONE',  ( 0.000000000000000000, 0.000000000000000000, 0.000000000000000000 ) ) ;
#80 = DIRECTION ( 'NONE',  ( 0.000000000000000000, 0.000000000000000000, 1.000000000000000000 ) ) ;
#81 = APPROVAL_DATE_TIME ( #46, #86 ) ;
#82 = CALENDAR_DATE ( 2023, 13, 2 ) ;
#83 = COORDINATED_UNIVERSAL_TIME_OFFSET ( 1, 0, .AHEAD. ) ;
#84 = CARTESIAN_POINT ( 'NONE',  ( 0.000000000000000000, 0.000000000000000000, 8.000000000000000000 ) ) ;
#85 = AXIS2_PLACEMENT_3D ( 'NONE', #201, #24, #172 ) ;
#86 = APPROVAL ( #165, 'NEURÈENÝ' ) ;
#87 = LOCAL_TIME ( 8, 54, 59.00000000000000000, #13 ) ;
#88 = ADVANCED_FACE ( 'NONE', ( #134 ), #10, .T. ) ;
#89 = DIRECTION ( 'NONE',  ( 0.000000000000000000, 0.000000000000000000, 1.000000000000000000 ) ) ;
#90 = DIRECTION ( 'NONE',  ( -0.000000000000000000, -0.000000000000000000, -1.000000000000000000 ) ) ;
#91 = ORIENTED_EDGE ( 'NONE', *, *, #129, .F. ) ;
#92 = PERSON_AND_ORGANIZATION_ROLE ( 'classification_officer' ) ;
#93 = AXIS2_PLACEMENT_3D ( 'NONE', #184, #32, #253 ) ;
#94 = ORIENTED_EDGE ( 'NONE', *, *, #28, .F. ) ;
#95 = ORIENTED_EDGE ( 'NONE', *, *, #47, .T. ) ;
#96 = FACE_OUTER_BOUND ( 'NONE', #170, .T. ) ;
#97 =( GEOMETRIC_REPRESENTATION_CONTEXT ( 3 ) GLOBAL_UNCERTAINTY_ASSIGNED_CONTEXT ( ( #35 ) ) GLOBAL_UNIT_ASSIGNED_CONTEXT ( ( #110, #74, #207 ) ) REPRESENTATION_CONTEXT ( 'NONE', 'WORKASPACE' ) );
#98 = EDGE_LOOP ( 'NONE', ( #2, #40 ) ) ;
#99 = CARTESIAN_POINT ( 'NONE',  ( 13.00000000000000178, 1.592040838891559293E-15, 0.000000000000000000 ) ) ;
#100 = EDGE_CURVE ( 'NONE', #64, #131, #196, .T. ) ;
#101 = LINE ( 'NONE', #178, #141 ) ;
#102 = CIRCLE ( 'NONE', #179, 10.00000000000000000 ) ;
#103 = ADVANCED_FACE ( 'NONE', ( #243 ), #122, .F. ) ;
#104 = CARTESIAN_POINT ( 'NONE',  ( 0.000000000000000000, 0.000000000000000000, 8.000000000000000000 ) ) ;
#105 = AXIS2_PLACEMENT_3D ( 'NONE', #234, #164, #15 ) ;
#106 = EDGE_CURVE ( 'NONE', #218, #36, #101, .T. ) ;
#107 = CC_DESIGN_PERSON_AND_ORGANIZATION_ASSIGNMENT ( #7, #132, ( #43 ) ) ;
#108 = CYLINDRICAL_SURFACE ( 'NONE', #216, 13.00000000000000178 ) ;
#109 = CARTESIAN_POINT ( 'NONE',  ( 0.000000000000000000, 0.000000000000000000, 0.000000000000000000 ) ) ;
#110 =( LENGTH_UNIT ( ) NAMED_UNIT ( * ) SI_UNIT ( .MILLI., .METRE. ) );
#111 = ORIENTED_EDGE ( 'NONE', *, *, #245, .T. ) ;
#112 = APPLICATION_PROTOCOL_DEFINITION ( 'international standard', 'config_control_design', 1994, #146 ) ;
#113 = ORIENTED_EDGE ( 'NONE', *, *, #106, .T. ) ;
#114 = COORDINATED_UNIVERSAL_TIME_OFFSET ( 1, 0, .AHEAD. ) ;
#115 = LINE ( 'NONE', #239, #18 ) ;
#116 = ORIENTED_EDGE ( 'NONE', *, *, #47, .F. ) ;
#117 = PERSON_AND_ORGANIZATION ( #58, #27 ) ;
#118 = AXIS2_PLACEMENT_3D ( 'NONE', #84, #222, #212 ) ;
#119 = ORIENTED_EDGE ( 'NONE', *, *, #209, .T. ) ;
#120 = APPROVAL_STATUS ( 'not_yet_approved' ) ;
#121 = DIRECTION ( 'NONE',  ( 1.000000000000000000, 0.000000000000000000, 0.000000000000000000 ) ) ;
#122 = PLANE ( 'NONE',  #85 ) ;
#123 = AXIS2_PLACEMENT_3D ( 'NONE', #69, #166, #14 ) ;
#124 = DATE_TIME_ROLE ( 'creation_date' ) ;
#125 = CARTESIAN_POINT ( 'NONE',  ( 0.000000000000000000, 0.000000000000000000, 100.0000000000000000 ) ) ;
#126 = DIRECTION ( 'NONE',  ( 0.000000000000000000, 0.000000000000000000, 1.000000000000000000 ) ) ;
#127 = ORIENTED_EDGE ( 'NONE', *, *, #28, .T. ) ;
#128 = EDGE_LOOP ( 'NONE', ( #116, #255 ) ) ;
#129 = EDGE_CURVE ( 'NONE', #53, #131, #16, .T. ) ;
#130 = DIRECTION ( 'NONE',  ( 0.000000000000000000, 0.000000000000000000, 1.000000000000000000 ) ) ;
#131 = VERTEX_POINT ( 'NONE', #159 ) ;
#132 = PERSON_AND_ORGANIZATION_ROLE ( 'design_owner' ) ;
#133 = AXIS2_PLACEMENT_3D ( 'NONE', #33, #80, #22 ) ;
#134 = FACE_OUTER_BOUND ( 'NONE', #167, .T. ) ;
#135 = CYLINDRICAL_SURFACE ( 'NONE', #249, 10.00000000000000000 ) ;
#136 = CC_DESIGN_DATE_AND_TIME_ASSIGNMENT ( #242, #124, ( #29 ) ) ;
#137 = PLANE ( 'NONE',  #11 ) ;
#138 = PERSON_AND_ORGANIZATION_ROLE ( 'creator' ) ;
#139 = CC_DESIGN_DATE_AND_TIME_ASSIGNMENT ( #215, #192, ( #49 ) ) ;
#140 = APPROVAL_STATUS ( 'not_yet_approved' ) ;
#141 = VECTOR ( 'NONE', #188, 1000.000000000000000 ) ;
#142 = CARTESIAN_POINT ( 'NONE',  ( 0.000000000000000000, 0.000000000000000000, 8.000000000000000000 ) ) ;
#143 = CARTESIAN_POINT ( 'NONE',  ( 10.00000000000000000, 1.224646799147353256E-15, 100.0000000000000000 ) ) ;
#144 = PRODUCT_DEFINITION_FORMATION_WITH_SPECIFIED_SOURCE ( 'LIBOVOLNÝ', '', #43, .NOT_KNOWN. ) ;
#145 = CARTESIAN_POINT ( 'NONE',  ( -13.00000000000000178, 0.000000000000000000, 8.000000000000000000 ) ) ;
#146 = APPLICATION_CONTEXT ( 'configuration controlled 3d designs of mechanical parts and assemblies' ) ;
#147 = COORDINATED_UNIVERSAL_TIME_OFFSET ( 1, 0, .AHEAD. ) ;
#148 = PERSON_AND_ORGANIZATION_ROLE ( 'creator' ) ;
#149 = LOCAL_TIME ( 8, 54, 59.00000000000000000, #114 ) ;
#150 = ORIENTED_EDGE ( 'NONE', *, *, #129, .T. ) ;
#151 = DIRECTION ( 'NONE',  ( 0.000000000000000000, 0.000000000000000000, 1.000000000000000000 ) ) ;
#152 = DIRECTION ( 'NONE',  ( -0.000000000000000000, -0.000000000000000000, -1.000000000000000000 ) ) ;
#153 = ORIENTED_EDGE ( 'NONE', *, *, #100, .T. ) ;
#154 = CALENDAR_DATE ( 2023, 13, 2 ) ;
#155 = ADVANCED_FACE ( 'NONE', ( #229, #67 ), #137, .T. ) ;
#156 = CARTESIAN_POINT ( 'NONE',  ( 0.000000000000000000, 0.000000000000000000, 0.000000000000000000 ) ) ;
#157 = AXIS2_PLACEMENT_3D ( 'NONE', #156, #233, #121 ) ;
#158 = DIRECTION ( 'NONE',  ( 1.000000000000000000, 0.000000000000000000, 0.000000000000000000 ) ) ;
#159 = CARTESIAN_POINT ( 'NONE',  ( -13.00000000000000178, 0.000000000000000000, 0.000000000000000000 ) ) ;
#160 = EDGE_CURVE ( 'NONE', #20, #53, #231, .T. ) ;
#161 = FACE_OUTER_BOUND ( 'NONE', #224, .T. ) ;
#162 = LOCAL_TIME ( 8, 54, 59.00000000000000000, #83 ) ;
#163 = DIRECTION ( 'NONE',  ( 1.000000000000000000, 0.000000000000000000, 0.000000000000000000 ) ) ;
#164 = DIRECTION ( 'NONE',  ( 0.000000000000000000, 0.000000000000000000, 1.000000000000000000 ) ) ;
#165 = APPROVAL_STATUS ( 'not_yet_approved' ) ;
#166 = DIRECTION ( 'NONE',  ( 0.000000000000000000, 0.000000000000000000, 1.000000000000000000 ) ) ;
#167 = EDGE_LOOP ( 'NONE', ( #193, #62, #150, #95 ) ) ;
#168 = SECURITY_CLASSIFICATION_LEVEL ( 'unclassified' ) ;
#169 = EDGE_CURVE ( 'NONE', #213, #36, #203, .T. ) ;
#170 = EDGE_LOOP ( 'NONE', ( #77, #127, #71, #5 ) ) ;
#171 = CIRCLE ( 'NONE', #157, 13.00000000000000178 ) ;
#172 = DIRECTION ( 'NONE',  ( 1.000000000000000000, 0.000000000000000000, -0.000000000000000000 ) ) ;
#173 = ADVANCED_FACE ( 'NONE', ( #161 ), #57, .T. ) ;
#174 = CARTESIAN_POINT ( 'NONE',  ( 10.00000000000000000, 1.224646799147353256E-15, 100.0000000000000000 ) ) ;
#175 = APPROVAL_ROLE ( '' ) ;
#176 = DIRECTION ( 'NONE',  ( -1.000000000000000000, 0.000000000000000000, 0.000000000000000000 ) ) ;
#177 = VECTOR ( 'NONE', #73, 1000.000000000000000 ) ;
#178 = CARTESIAN_POINT ( 'NONE',  ( -10.00000000000000000, 0.000000000000000000, 100.0000000000000000 ) ) ;
#179 = AXIS2_PLACEMENT_3D ( 'NONE', #142, #232, #183 ) ;
#180 = APPROVAL_DATE_TIME ( #26, #247 ) ;
#181 = DIRECTION ( 'NONE',  ( 0.000000000000000000, 0.000000000000000000, 1.000000000000000000 ) ) ;
#182 = ADVANCED_FACE ( 'NONE', ( #214 ), #108, .T. ) ;
#183 = DIRECTION ( 'NONE',  ( 1.000000000000000000, 0.000000000000000000, 0.000000000000000000 ) ) ;
#184 = CARTESIAN_POINT ( 'NONE',  ( 0.000000000000000000, 0.000000000000000000, 100.0000000000000000 ) ) ;
#185 = APPROVAL_PERSON_ORGANIZATION ( #191, #86, #1 ) ;
#186 = CC_DESIGN_PERSON_AND_ORGANIZATION_ASSIGNMENT ( #117, #148, ( #144 ) ) ;
#187 = CARTESIAN_POINT ( 'NONE',  ( -10.00000000000000000, 0.000000000000000000, 100.0000000000000000 ) ) ;
#188 = DIRECTION ( 'NONE',  ( -0.000000000000000000, -0.000000000000000000, -1.000000000000000000 ) ) ;
#189 = DIRECTION ( 'NONE',  ( -1.000000000000000000, 0.000000000000000000, 0.000000000000000000 ) ) ;
#190 = AXIS2_PLACEMENT_3D ( 'NONE', #8, #241, #226 ) ;
#191 = PERSON_AND_ORGANIZATION ( #58, #27 ) ;
#192 = DATE_TIME_ROLE ( 'classification_date' ) ;
#193 = ORIENTED_EDGE ( 'NONE', *, *, #3, .F. ) ;
#194 = CARTESIAN_POINT ( 'NONE',  ( -13.00000000000000178, 0.000000000000000000, 8.000000000000000000 ) ) ;
#195 = ORIENTED_EDGE ( 'NONE', *, *, #63, .F. ) ;
#196 = CIRCLE ( 'NONE', #72, 13.00000000000000178 ) ;
#197 = PERSON_AND_ORGANIZATION_ROLE ( 'design_supplier' ) ;
#198 = DIRECTION ( 'NONE',  ( 1.000000000000000000, 0.000000000000000000, 0.000000000000000000 ) ) ;
#199 = CC_DESIGN_APPROVAL ( #86, ( #49 ) ) ;
#200 = CC_DESIGN_PERSON_AND_ORGANIZATION_ASSIGNMENT ( #48, #138, ( #29 ) ) ;
#201 = CARTESIAN_POINT ( 'NONE',  ( 0.000000000000000000, 0.000000000000000000, 0.000000000000000000 ) ) ;
#202 = CIRCLE ( 'NONE', #190, 10.00000000000000000 ) ;
#203 = CIRCLE ( 'NONE', #210, 10.00000000000000000 ) ;
#204 = LOCAL_TIME ( 8, 54, 59.00000000000000000, #147 ) ;
#205 = APPROVAL_ROLE ( '' ) ;
#206 = DATE_AND_TIME ( #250, #87 ) ;
#207 =( NAMED_UNIT ( * ) SI_UNIT ( $, .STERADIAN. ) SOLID_ANGLE_UNIT ( ) );
#208 = CARTESIAN_POINT ( 'NONE',  ( 10.00000000000000000, 1.224646799147353256E-15, 8.000000000000000000 ) ) ;
#209 = EDGE_CURVE ( 'NONE', #38, #218, #21, .T. ) ;
#210 = AXIS2_PLACEMENT_3D ( 'NONE', #254, #126, #211 ) ;
#211 = DIRECTION ( 'NONE',  ( 1.000000000000000000, 0.000000000000000000, 0.000000000000000000 ) ) ;
#212 = DIRECTION ( 'NONE',  ( -1.000000000000000000, 0.000000000000000000, 0.000000000000000000 ) ) ;
#213 = VERTEX_POINT ( 'NONE', #208 ) ;
#214 = FACE_OUTER_BOUND ( 'NONE', #235, .T. ) ;
#215 = DATE_AND_TIME ( #154, #149 ) ;
#216 = AXIS2_PLACEMENT_3D ( 'NONE', #37, #90, #189 ) ;
#217 = DIRECTION ( 'NONE',  ( -0.000000000000000000, -0.000000000000000000, -1.000000000000000000 ) ) ;
#218 = VERTEX_POINT ( 'NONE', #187 ) ;
#219 = APPROVAL_DATE_TIME ( #206, #50 ) ;
#220 = VECTOR ( 'NONE', #217, 1000.000000000000000 ) ;
#221 = PERSON_AND_ORGANIZATION ( #58, #27 ) ;
#222 = DIRECTION ( 'NONE',  ( -0.000000000000000000, -0.000000000000000000, -1.000000000000000000 ) ) ;
#223 = AXIS2_PLACEMENT_3D ( 'NONE', #31, #89, #163 ) ;
#224 = EDGE_LOOP ( 'NONE', ( #94, #195, #113, #111 ) ) ;
#225 = PRODUCT_DEFINITION_SHAPE ( 'NONE', 'NONE',  #29 ) ;
#226 = DIRECTION ( 'NONE',  ( 1.000000000000000000, 0.000000000000000000, 0.000000000000000000 ) ) ;
#227 = SHAPE_DEFINITION_REPRESENTATION ( #225, #246 ) ;
#228 = CLOSED_SHELL ( 'NONE', ( #70, #182, #88, #155, #103, #173, #238 ) ) ;
#229 = FACE_BOUND ( 'NONE', #98, .T. ) ;
#230 = CALENDAR_DATE ( 2023, 13, 2 ) ;
#231 = CIRCLE ( 'NONE', #223, 13.00000000000000178 ) ;
#232 = DIRECTION ( 'NONE',  ( 0.000000000000000000, 0.000000000000000000, 1.000000000000000000 ) ) ;
#233 = DIRECTION ( 'NONE',  ( 0.000000000000000000, 0.000000000000000000, 1.000000000000000000 ) ) ;
#234 = CARTESIAN_POINT ( 'NONE',  ( 0.000000000000000000, 0.000000000000000000, 100.0000000000000000 ) ) ;
#235 = EDGE_LOOP ( 'NONE', ( #65, #4, #153, #91 ) ) ;
#236 = CC_DESIGN_APPROVAL ( #50, ( #144 ) ) ;
#237 = MECHANICAL_CONTEXT ( 'NONE', #240, 'mechanical' ) ;
#238 = ADVANCED_FACE ( 'NONE', ( #251 ), #34, .T. ) ;
#239 = CARTESIAN_POINT ( 'NONE',  ( 13.00000000000000178, 1.592040838891559293E-15, 8.000000000000000000 ) ) ;
#240 = APPLICATION_CONTEXT ( 'configuration controlled 3d designs of mechanical parts and assemblies' ) ;
#241 = DIRECTION ( 'NONE',  ( 0.000000000000000000, 0.000000000000000000, 1.000000000000000000 ) ) ;
#242 = DATE_AND_TIME ( #230, #162 ) ;
#243 = FACE_OUTER_BOUND ( 'NONE', #128, .T. ) ;
#244 = LOCAL_TIME ( 8, 54, 59.00000000000000000, #9 ) ;
#245 = EDGE_CURVE ( 'NONE', #36, #213, #102, .T. ) ;
#246 = ADVANCED_BREP_SHAPE_REPRESENTATION ( '9b4f', ( #248, #252 ), #97 ) ;
#247 = APPROVAL ( #120, 'NEURÈENÝ' ) ;
#248 = MANIFOLD_SOLID_BREP ( 'Pøidat vysunutím3', #228 ) ;
#249 = AXIS2_PLACEMENT_3D ( 'NONE', #125, #55, #176 ) ;
#250 = CALENDAR_DATE ( 2023, 13, 2 ) ;
#251 = FACE_OUTER_BOUND ( 'NONE', #59, .T. ) ;
#252 = AXIS2_PLACEMENT_3D ( 'NONE', #79, #151, #198 ) ;
#253 = DIRECTION ( 'NONE',  ( -1.000000000000000000, 0.000000000000000000, 0.000000000000000000 ) ) ;
#254 = CARTESIAN_POINT ( 'NONE',  ( 0.000000000000000000, 0.000000000000000000, 8.000000000000000000 ) ) ;
#255 = ORIENTED_EDGE ( 'NONE', *, *, #100, .F. ) ;
ENDSEC;
END-ISO-10303-21;
