ISO-10303-21;
HEADER;
FILE_DESCRIPTION (( 'STEP AP203' ),
    '1' );
FILE_NAME ('c0d5.STEP',
    '2023-02-13T07:51:11',
    ( '' ),
    ( '' ),
    'SwSTEP 2.0',
    'SolidWorks 2019',
    '' );
FILE_SCHEMA (( 'CONFIG_CONTROL_DESIGN' ));
ENDSEC;

DATA;
#1 = PERSON_AND_ORGANIZATION ( #110, #196 ) ;
#2 = EDGE_LOOP ( 'NONE', ( #98, #160, #142, #99 ) ) ;
#3 = DIRECTION ( 'NONE',  ( 0.000000000000000000, 0.000000000000000000, 1.000000000000000000 ) ) ;
#4 = ORIENTED_EDGE ( 'NONE', *, *, #183, .T. ) ;
#5 = EDGE_CURVE ( 'NONE', #191, #195, #103, .T. ) ;
#6 = PRODUCT_DEFINITION ( 'NEZNÁMÝ', '', #91, #175 ) ;
#7 = DIRECTION ( 'NONE',  ( -0.000000000000000000, -0.000000000000000000, -1.000000000000000000 ) ) ;
#8 = CARTESIAN_POINT ( 'NONE',  ( 0.000000000000000000, 0.000000000000000000, 800.0000000000000000 ) ) ;
#9 = CARTESIAN_POINT ( 'NONE',  ( 0.000000000000000000, 0.000000000000000000, 10.00000000000000000 ) ) ;
#10 = VECTOR ( 'NONE', #22, 1000.000000000000000 ) ;
#11 = CYLINDRICAL_SURFACE ( 'NONE', #65, 16.00000000000000000 ) ;
#12 = CARTESIAN_POINT ( 'NONE',  ( 0.000000000000000000, 0.000000000000000000, 800.0000000000000000 ) ) ;
#13 = EDGE_LOOP ( 'NONE', ( #154, #133, #157, #4 ) ) ;
#14 = AXIS2_PLACEMENT_3D ( 'NONE', #89, #41, #223 ) ;
#15 = DATE_AND_TIME ( #231, #206 ) ;
#16 = DATE_AND_TIME ( #177, #105 ) ;
#17 = AXIS2_PLACEMENT_3D ( 'NONE', #86, #100, #122 ) ;
#18 = PERSON_AND_ORGANIZATION_ROLE ( 'classification_officer' ) ;
#19 = ORIENTED_EDGE ( 'NONE', *, *, #209, .T. ) ;
#20 = ORIENTED_EDGE ( 'NONE', *, *, #45, .F. ) ;
#21 = ORIENTED_EDGE ( 'NONE', *, *, #209, .F. ) ;
#22 = DIRECTION ( 'NONE',  ( -0.000000000000000000, -0.000000000000000000, -1.000000000000000000 ) ) ;
#23 = ADVANCED_FACE ( 'NONE', ( #49 ), #47, .T. ) ;
#24 = CARTESIAN_POINT ( 'NONE',  ( 16.00000000000000000, 1.959434878635765131E-15, 0.000000000000000000 ) ) ;
#25 = VECTOR ( 'NONE', #203, 1000.000000000000000 ) ;
#26 = DIRECTION ( 'NONE',  ( -1.000000000000000000, 0.000000000000000000, 0.000000000000000000 ) ) ;
#27 = CARTESIAN_POINT ( 'NONE',  ( -16.00000000000000000, 0.000000000000000000, 0.000000000000000000 ) ) ;
#28 = PLANE ( 'NONE',  #232 ) ;
#29 = DIRECTION ( 'NONE',  ( 0.000000000000000000, 0.000000000000000000, 1.000000000000000000 ) ) ;
#30 = DIRECTION ( 'NONE',  ( -1.000000000000000000, 0.000000000000000000, 0.000000000000000000 ) ) ;
#31 = CC_DESIGN_APPROVAL ( #149, ( #88 ) ) ;
#32 = LINE ( 'NONE', #50, #25 ) ;
#33 = ADVANCED_FACE ( 'NONE', ( #108 ), #11, .T. ) ;
#34 = COORDINATED_UNIVERSAL_TIME_OFFSET ( 1, 0, .AHEAD. ) ;
#35 = EDGE_LOOP ( 'NONE', ( #94, #80, #42, #21 ) ) ;
#36 = CC_DESIGN_APPROVAL ( #179, ( #6 ) ) ;
#37 = ORIENTED_EDGE ( 'NONE', *, *, #129, .T. ) ;
#38 = SHAPE_DEFINITION_REPRESENTATION ( #150, #242 ) ;
#39 = COORDINATED_UNIVERSAL_TIME_OFFSET ( 1, 0, .AHEAD. ) ;
#40 = CIRCLE ( 'NONE', #137, 12.50000000000000000 ) ;
#41 = DIRECTION ( 'NONE',  ( 0.000000000000000000, 0.000000000000000000, 1.000000000000000000 ) ) ;
#42 = ORIENTED_EDGE ( 'NONE', *, *, #45, .T. ) ;
#43 = DIRECTION ( 'NONE',  ( 1.000000000000000000, 0.000000000000000000, -0.000000000000000000 ) ) ;
#44 = CARTESIAN_POINT ( 'NONE',  ( 0.000000000000000000, 0.000000000000000000, 10.00000000000000000 ) ) ;
#45 = EDGE_CURVE ( 'NONE', #158, #182, #87, .T. ) ;
#46 = CARTESIAN_POINT ( 'NONE',  ( 0.000000000000000000, 0.000000000000000000, 0.000000000000000000 ) ) ;
#47 = CYLINDRICAL_SURFACE ( 'NONE', #77, 16.00000000000000000 ) ;
#48 = DIRECTION ( 'NONE',  ( 0.000000000000000000, 0.000000000000000000, 1.000000000000000000 ) ) ;
#49 = FACE_OUTER_BOUND ( 'NONE', #118, .T. ) ;
#50 = CARTESIAN_POINT ( 'NONE',  ( 12.50000000000000000, 1.530808498934191127E-15, 800.0000000000000000 ) ) ;
#51 = VECTOR ( 'NONE', #126, 1000.000000000000000 ) ;
#52 = DIRECTION ( 'NONE',  ( -1.000000000000000000, 0.000000000000000000, 0.000000000000000000 ) ) ;
#53 = AXIS2_PLACEMENT_3D ( 'NONE', #240, #141, #109 ) ;
#54 = MANIFOLD_SOLID_BREP ( 'Pøidat vysunutím3', #210 ) ;
#55 = CC_DESIGN_PERSON_AND_ORGANIZATION_ASSIGNMENT ( #156, #235, ( #130 ) ) ;
#56 = FACE_OUTER_BOUND ( 'NONE', #2, .T. ) ;
#57 = CIRCLE ( 'NONE', #163, 16.00000000000000000 ) ;
#58 = PERSON_AND_ORGANIZATION ( #110, #196 ) ;
#59 = PERSON_AND_ORGANIZATION ( #110, #196 ) ;
#60 = ORIENTED_EDGE ( 'NONE', *, *, #229, .F. ) ;
#61 = PERSON_AND_ORGANIZATION ( #110, #196 ) ;
#62 = APPROVAL_STATUS ( 'not_yet_approved' ) ;
#63 = CARTESIAN_POINT ( 'NONE',  ( -12.50000000000000000, 0.000000000000000000, 10.00000000000000000 ) ) ;
#64 = VERTEX_POINT ( 'NONE', #125 ) ;
#65 = AXIS2_PLACEMENT_3D ( 'NONE', #187, #250, #26 ) ;
#66 = DIRECTION ( 'NONE',  ( 1.000000000000000000, 0.000000000000000000, 0.000000000000000000 ) ) ;
#67 = CARTESIAN_POINT ( 'NONE',  ( 16.00000000000000000, 1.959434878635765131E-15, 10.00000000000000000 ) ) ;
#68 = FACE_OUTER_BOUND ( 'NONE', #135, .T. ) ;
#69 = EDGE_CURVE ( 'NONE', #195, #81, #120, .T. ) ;
#70 = DIRECTION ( 'NONE',  ( 0.000000000000000000, 0.000000000000000000, 1.000000000000000000 ) ) ;
#71 = APPROVAL_PERSON_ORGANIZATION ( #237, #253, #114 ) ;
#72 =( NAMED_UNIT ( * ) SI_UNIT ( $, .STERADIAN. ) SOLID_ANGLE_UNIT ( ) );
#73 = PERSON_AND_ORGANIZATION_ROLE ( 'design_supplier' ) ;
#74 = APPROVAL_DATE_TIME ( #97, #179 ) ;
#75 = CALENDAR_DATE ( 2023, 13, 2 ) ;
#76 = APPLICATION_PROTOCOL_DEFINITION ( 'international standard', 'config_control_design', 1994, #155 ) ;
#77 = AXIS2_PLACEMENT_3D ( 'NONE', #104, #205, #30 ) ;
#78 = AXIS2_PLACEMENT_3D ( 'NONE', #173, #176, #211 ) ;
#79 = DATE_AND_TIME ( #233, #84 ) ;
#80 = ORIENTED_EDGE ( 'NONE', *, *, #172, .T. ) ;
#81 = VERTEX_POINT ( 'NONE', #63 ) ;
#82 = AXIS2_PLACEMENT_3D ( 'NONE', #249, #29, #228 ) ;
#83 = FACE_OUTER_BOUND ( 'NONE', #13, .T. ) ;
#84 = LOCAL_TIME ( 8, 51, 11.00000000000000000, #93 ) ;
#85 = CARTESIAN_POINT ( 'NONE',  ( 0.000000000000000000, 0.000000000000000000, 10.00000000000000000 ) ) ;
#86 = CARTESIAN_POINT ( 'NONE',  ( 0.000000000000000000, 0.000000000000000000, 800.0000000000000000 ) ) ;
#87 = CIRCLE ( 'NONE', #14, 16.00000000000000000 ) ;
#88 = SECURITY_CLASSIFICATION ( '', '', #254 ) ;
#89 = CARTESIAN_POINT ( 'NONE',  ( 0.000000000000000000, 0.000000000000000000, 0.000000000000000000 ) ) ;
#90 = CC_DESIGN_PERSON_AND_ORGANIZATION_ASSIGNMENT ( #1, #18, ( #88 ) ) ;
#91 = PRODUCT_DEFINITION_FORMATION_WITH_SPECIFIED_SOURCE ( 'LIBOVOLNÝ', '', #130, .NOT_KNOWN. ) ;
#92 = CIRCLE ( 'NONE', #82, 12.50000000000000000 ) ;
#93 = COORDINATED_UNIVERSAL_TIME_OFFSET ( 1, 0, .AHEAD. ) ;
#94 = ORIENTED_EDGE ( 'NONE', *, *, #165, .F. ) ;
#95 = ADVANCED_FACE ( 'NONE', ( #162 ), #147, .T. ) ;
#96 = PERSON_AND_ORGANIZATION_ROLE ( 'creator' ) ;
#97 = DATE_AND_TIME ( #194, #146 ) ;
#98 = ORIENTED_EDGE ( 'NONE', *, *, #5, .F. ) ;
#99 = ORIENTED_EDGE ( 'NONE', *, *, #69, .F. ) ;
#100 = DIRECTION ( 'NONE',  ( -0.000000000000000000, -0.000000000000000000, -1.000000000000000000 ) ) ;
#101 = EDGE_LOOP ( 'NONE', ( #116, #138 ) ) ;
#102 = DIRECTION ( 'NONE',  ( 0.000000000000000000, 0.000000000000000000, 1.000000000000000000 ) ) ;
#103 = CIRCLE ( 'NONE', #207, 12.50000000000000000 ) ;
#104 = CARTESIAN_POINT ( 'NONE',  ( 0.000000000000000000, 0.000000000000000000, 10.00000000000000000 ) ) ;
#105 = LOCAL_TIME ( 8, 51, 11.00000000000000000, #161 ) ;
#106 = PLANE ( 'NONE',  #171 ) ;
#107 = FACE_OUTER_BOUND ( 'NONE', #101, .T. ) ;
#108 = FACE_OUTER_BOUND ( 'NONE', #35, .T. ) ;
#109 = DIRECTION ( 'NONE',  ( 1.000000000000000000, 0.000000000000000000, 0.000000000000000000 ) ) ;
#110 = PERSON ( 'NEURÈENÝ', 'NEURÈENÝ', 'NEURÈENÝ', ('NEURÈENÝ'), ('NEURÈENÝ'), ('NEURÈENÝ') ) ;
#111 = APPROVAL_PERSON_ORGANIZATION ( #61, #149, #216 ) ;
#112 = APPLICATION_PROTOCOL_DEFINITION ( 'international standard', 'config_control_design', 1994, #185 ) ;
#113 = VERTEX_POINT ( 'NONE', #144 ) ;
#114 = APPROVAL_ROLE ( '' ) ;
#115 = COORDINATED_UNIVERSAL_TIME_OFFSET ( 1, 0, .AHEAD. ) ;
#116 = ORIENTED_EDGE ( 'NONE', *, *, #169, .T. ) ;
#117 = ADVANCED_FACE ( 'NONE', ( #83 ), #243, .T. ) ;
#118 = EDGE_LOOP ( 'NONE', ( #213, #197, #19, #37 ) ) ;
#119 = CC_DESIGN_PERSON_AND_ORGANIZATION_ASSIGNMENT ( #59, #96, ( #91 ) ) ;
#120 = LINE ( 'NONE', #217, #10 ) ;
#121 = ORIENTED_EDGE ( 'NONE', *, *, #215, .T. ) ;
#122 = DIRECTION ( 'NONE',  ( -1.000000000000000000, 0.000000000000000000, 0.000000000000000000 ) ) ;
#123 = DIRECTION ( 'NONE',  ( 0.000000000000000000, 0.000000000000000000, 1.000000000000000000 ) ) ;
#124 = CC_DESIGN_PERSON_AND_ORGANIZATION_ASSIGNMENT ( #134, #151, ( #6 ) ) ;
#125 = CARTESIAN_POINT ( 'NONE',  ( 16.00000000000000000, 1.959434878635765131E-15, 10.00000000000000000 ) ) ;
#126 = DIRECTION ( 'NONE',  ( -0.000000000000000000, -0.000000000000000000, -1.000000000000000000 ) ) ;
#127 = CC_DESIGN_DATE_AND_TIME_ASSIGNMENT ( #153, #234, ( #88 ) ) ;
#128 = CYLINDRICAL_SURFACE ( 'NONE', #227, 12.50000000000000000 ) ;
#129 = EDGE_CURVE ( 'NONE', #182, #158, #145, .T. ) ;
#130 = PRODUCT ( 'c0d5', 'c0d5', '', ( #255 ) ) ;
#131 = AXIS2_PLACEMENT_3D ( 'NONE', #46, #221, #166 ) ;
#132 =( NAMED_UNIT ( * ) PLANE_ANGLE_UNIT ( ) SI_UNIT ( $, .RADIAN. ) );
#133 = ORIENTED_EDGE ( 'NONE', *, *, #215, .F. ) ;
#134 = PERSON_AND_ORGANIZATION ( #110, #196 ) ;
#135 = EDGE_LOOP ( 'NONE', ( #230, #20 ) ) ;
#136 = ORIENTED_EDGE ( 'NONE', *, *, #183, .F. ) ;
#137 = AXIS2_PLACEMENT_3D ( 'NONE', #44, #198, #66 ) ;
#138 = ORIENTED_EDGE ( 'NONE', *, *, #165, .T. ) ;
#139 = ORIENTED_EDGE ( 'NONE', *, *, #5, .T. ) ;
#140 = APPROVAL_STATUS ( 'not_yet_approved' ) ;
#141 = DIRECTION ( 'NONE',  ( 0.000000000000000000, 0.000000000000000000, 1.000000000000000000 ) ) ;
#142 = ORIENTED_EDGE ( 'NONE', *, *, #229, .T. ) ;
#143 = CARTESIAN_POINT ( 'NONE',  ( 12.50000000000000000, 1.530808498934191127E-15, 800.0000000000000000 ) ) ;
#144 = CARTESIAN_POINT ( 'NONE',  ( 12.50000000000000000, 1.530808498934191127E-15, 10.00000000000000000 ) ) ;
#145 = CIRCLE ( 'NONE', #131, 16.00000000000000000 ) ;
#146 = LOCAL_TIME ( 8, 51, 11.00000000000000000, #115 ) ;
#147 = PLANE ( 'NONE',  #241 ) ;
#148 = CARTESIAN_POINT ( 'NONE',  ( -16.00000000000000000, 0.000000000000000000, 10.00000000000000000 ) ) ;
#149 = APPROVAL ( #140, 'NEURÈENÝ' ) ;
#150 = PRODUCT_DEFINITION_SHAPE ( 'NONE', 'NONE',  #6 ) ;
#151 = PERSON_AND_ORGANIZATION_ROLE ( 'creator' ) ;
#152 = UNCERTAINTY_MEASURE_WITH_UNIT (LENGTH_MEASURE( 1.000000000000000082E-05 ), #188, 'distance_accuracy_value', 'NONE');
#153 = DATE_AND_TIME ( #75, #212 ) ;
#154 = ORIENTED_EDGE ( 'NONE', *, *, #222, .F. ) ;
#155 = APPLICATION_CONTEXT ( 'configuration controlled 3d designs of mechanical parts and assemblies' ) ;
#156 = PERSON_AND_ORGANIZATION ( #110, #196 ) ;
#157 = ORIENTED_EDGE ( 'NONE', *, *, #69, .T. ) ;
#158 = VERTEX_POINT ( 'NONE', #24 ) ;
#159 = CARTESIAN_POINT ( 'NONE',  ( -16.00000000000000000, 0.000000000000000000, 10.00000000000000000 ) ) ;
#160 = ORIENTED_EDGE ( 'NONE', *, *, #222, .T. ) ;
#161 = COORDINATED_UNIVERSAL_TIME_OFFSET ( 1, 0, .AHEAD. ) ;
#162 = FACE_OUTER_BOUND ( 'NONE', #199, .T. ) ;
#163 = AXIS2_PLACEMENT_3D ( 'NONE', #201, #181, #167 ) ;
#164 = APPROVAL_PERSON_ORGANIZATION ( #214, #179, #178 ) ;
#165 = EDGE_CURVE ( 'NONE', #64, #238, #168, .T. ) ;
#166 = DIRECTION ( 'NONE',  ( 1.000000000000000000, 0.000000000000000000, 0.000000000000000000 ) ) ;
#167 = DIRECTION ( 'NONE',  ( 1.000000000000000000, 0.000000000000000000, 0.000000000000000000 ) ) ;
#168 = CIRCLE ( 'NONE', #204, 16.00000000000000000 ) ;
#169 = EDGE_CURVE ( 'NONE', #238, #64, #57, .T. ) ;
#170 = CC_DESIGN_PERSON_AND_ORGANIZATION_ASSIGNMENT ( #58, #73, ( #91 ) ) ;
#171 = AXIS2_PLACEMENT_3D ( 'NONE', #9, #70, #225 ) ;
#172 = EDGE_CURVE ( 'NONE', #64, #158, #248, .T. ) ;
#173 = CARTESIAN_POINT ( 'NONE',  ( 0.000000000000000000, 0.000000000000000000, 0.000000000000000000 ) ) ;
#174 = DATE_TIME_ROLE ( 'creation_date' ) ;
#175 = DESIGN_CONTEXT ( 'detailed design', #185, 'design' ) ;
#176 = DIRECTION ( 'NONE',  ( 0.000000000000000000, 0.000000000000000000, 1.000000000000000000 ) ) ;
#177 = CALENDAR_DATE ( 2023, 13, 2 ) ;
#178 = APPROVAL_ROLE ( '' ) ;
#179 = APPROVAL ( #190, 'NEURÈENÝ' ) ;
#180 = CARTESIAN_POINT ( 'NONE',  ( 0.000000000000000000, 0.000000000000000000, 800.0000000000000000 ) ) ;
#181 = DIRECTION ( 'NONE',  ( 0.000000000000000000, 0.000000000000000000, 1.000000000000000000 ) ) ;
#182 = VERTEX_POINT ( 'NONE', #27 ) ;
#183 = EDGE_CURVE ( 'NONE', #81, #113, #40, .T. ) ;
#184 = CARTESIAN_POINT ( 'NONE',  ( 0.000000000000000000, 0.000000000000000000, 0.000000000000000000 ) ) ;
#185 = APPLICATION_CONTEXT ( 'configuration controlled 3d designs of mechanical parts and assemblies' ) ;
#186 = LINE ( 'NONE', #159, #219 ) ;
#187 = CARTESIAN_POINT ( 'NONE',  ( 0.000000000000000000, 0.000000000000000000, 10.00000000000000000 ) ) ;
#188 =( LENGTH_UNIT ( ) NAMED_UNIT ( * ) SI_UNIT ( .MILLI., .METRE. ) );
#189 = CIRCLE ( 'NONE', #53, 12.50000000000000000 ) ;
#190 = APPROVAL_STATUS ( 'not_yet_approved' ) ;
#191 = VERTEX_POINT ( 'NONE', #143 ) ;
#192 = ADVANCED_FACE ( 'NONE', ( #200, #107 ), #106, .T. ) ;
#193 = APPROVAL_DATE_TIME ( #15, #253 ) ;
#194 = CALENDAR_DATE ( 2023, 13, 2 ) ;
#195 = VERTEX_POINT ( 'NONE', #220 ) ;
#196 = ORGANIZATION ( 'NEURÈENÝ', 'NEURÈENÝ', '' ) ;
#197 = ORIENTED_EDGE ( 'NONE', *, *, #169, .F. ) ;
#198 = DIRECTION ( 'NONE',  ( 0.000000000000000000, 0.000000000000000000, 1.000000000000000000 ) ) ;
#199 = EDGE_LOOP ( 'NONE', ( #121, #139 ) ) ;
#200 = FACE_BOUND ( 'NONE', #218, .T. ) ;
#201 = CARTESIAN_POINT ( 'NONE',  ( 0.000000000000000000, 0.000000000000000000, 10.00000000000000000 ) ) ;
#202 = DIRECTION ( 'NONE',  ( 1.000000000000000000, 0.000000000000000000, -0.000000000000000000 ) ) ;
#203 = DIRECTION ( 'NONE',  ( -0.000000000000000000, -0.000000000000000000, -1.000000000000000000 ) ) ;
#204 = AXIS2_PLACEMENT_3D ( 'NONE', #85, #102, #246 ) ;
#205 = DIRECTION ( 'NONE',  ( -0.000000000000000000, -0.000000000000000000, -1.000000000000000000 ) ) ;
#206 = LOCAL_TIME ( 8, 51, 11.00000000000000000, #39 ) ;
#207 = AXIS2_PLACEMENT_3D ( 'NONE', #180, #3, #245 ) ;
#208 = ADVANCED_FACE ( 'NONE', ( #68 ), #28, .F. ) ;
#209 = EDGE_CURVE ( 'NONE', #238, #182, #186, .T. ) ;
#210 = CLOSED_SHELL ( 'NONE', ( #239, #33, #23, #192, #208, #117, #95 ) ) ;
#211 = DIRECTION ( 'NONE',  ( 1.000000000000000000, 0.000000000000000000, 0.000000000000000000 ) ) ;
#212 = LOCAL_TIME ( 8, 51, 11.00000000000000000, #34 ) ;
#213 = ORIENTED_EDGE ( 'NONE', *, *, #172, .F. ) ;
#214 = PERSON_AND_ORGANIZATION ( #110, #196 ) ;
#215 = EDGE_CURVE ( 'NONE', #195, #191, #189, .T. ) ;
#216 = APPROVAL_ROLE ( '' ) ;
#217 = CARTESIAN_POINT ( 'NONE',  ( -12.50000000000000000, 0.000000000000000000, 800.0000000000000000 ) ) ;
#218 = EDGE_LOOP ( 'NONE', ( #136, #60 ) ) ;
#219 = VECTOR ( 'NONE', #7, 1000.000000000000000 ) ;
#220 = CARTESIAN_POINT ( 'NONE',  ( -12.50000000000000000, 0.000000000000000000, 800.0000000000000000 ) ) ;
#221 = DIRECTION ( 'NONE',  ( 0.000000000000000000, 0.000000000000000000, 1.000000000000000000 ) ) ;
#222 = EDGE_CURVE ( 'NONE', #191, #113, #32, .T. ) ;
#223 = DIRECTION ( 'NONE',  ( 1.000000000000000000, 0.000000000000000000, 0.000000000000000000 ) ) ;
#224 = CC_DESIGN_APPROVAL ( #253, ( #91 ) ) ;
#225 = DIRECTION ( 'NONE',  ( 1.000000000000000000, 0.000000000000000000, -0.000000000000000000 ) ) ;
#226 = DIRECTION ( 'NONE',  ( -0.000000000000000000, -0.000000000000000000, -1.000000000000000000 ) ) ;
#227 = AXIS2_PLACEMENT_3D ( 'NONE', #12, #226, #52 ) ;
#228 = DIRECTION ( 'NONE',  ( 1.000000000000000000, 0.000000000000000000, 0.000000000000000000 ) ) ;
#229 = EDGE_CURVE ( 'NONE', #113, #81, #92, .T. ) ;
#230 = ORIENTED_EDGE ( 'NONE', *, *, #129, .F. ) ;
#231 = CALENDAR_DATE ( 2023, 13, 2 ) ;
#232 = AXIS2_PLACEMENT_3D ( 'NONE', #184, #48, #202 ) ;
#233 = CALENDAR_DATE ( 2023, 13, 2 ) ;
#234 = DATE_TIME_ROLE ( 'classification_date' ) ;
#235 = PERSON_AND_ORGANIZATION_ROLE ( 'design_owner' ) ;
#236 = APPROVAL_DATE_TIME ( #16, #149 ) ;
#237 = PERSON_AND_ORGANIZATION ( #110, #196 ) ;
#238 = VERTEX_POINT ( 'NONE', #148 ) ;
#239 = ADVANCED_FACE ( 'NONE', ( #56 ), #128, .T. ) ;
#240 = CARTESIAN_POINT ( 'NONE',  ( 0.000000000000000000, 0.000000000000000000, 800.0000000000000000 ) ) ;
#241 = AXIS2_PLACEMENT_3D ( 'NONE', #8, #123, #43 ) ;
#242 = ADVANCED_BREP_SHAPE_REPRESENTATION ( 'c0d5', ( #54, #78 ), #244 ) ;
#243 = CYLINDRICAL_SURFACE ( 'NONE', #17, 12.50000000000000000 ) ;
#244 =( GEOMETRIC_REPRESENTATION_CONTEXT ( 3 ) GLOBAL_UNCERTAINTY_ASSIGNED_CONTEXT ( ( #152 ) ) GLOBAL_UNIT_ASSIGNED_CONTEXT ( ( #188, #132, #72 ) ) REPRESENTATION_CONTEXT ( 'NONE', 'WORKASPACE' ) );
#245 = DIRECTION ( 'NONE',  ( 1.000000000000000000, 0.000000000000000000, 0.000000000000000000 ) ) ;
#246 = DIRECTION ( 'NONE',  ( 1.000000000000000000, 0.000000000000000000, 0.000000000000000000 ) ) ;
#247 = CC_DESIGN_DATE_AND_TIME_ASSIGNMENT ( #79, #174, ( #6 ) ) ;
#248 = LINE ( 'NONE', #67, #51 ) ;
#249 = CARTESIAN_POINT ( 'NONE',  ( 0.000000000000000000, 0.000000000000000000, 10.00000000000000000 ) ) ;
#250 = DIRECTION ( 'NONE',  ( -0.000000000000000000, -0.000000000000000000, -1.000000000000000000 ) ) ;
#251 = PRODUCT_RELATED_PRODUCT_CATEGORY ( 'detail', '', ( #130 ) ) ;
#252 = CC_DESIGN_SECURITY_CLASSIFICATION ( #88, ( #91 ) ) ;
#253 = APPROVAL ( #62, 'NEURÈENÝ' ) ;
#254 = SECURITY_CLASSIFICATION_LEVEL ( 'unclassified' ) ;
#255 = MECHANICAL_CONTEXT ( 'NONE', #155, 'mechanical' ) ;
ENDSEC;
END-ISO-10303-21;
