ISO-10303-21;
HEADER;
FILE_DESCRIPTION (( 'STEP AP203' ),
    '1' );
FILE_NAME ('4c92.STEP',
    '2023-01-31T14:49:40',
    ( '' ),
    ( '' ),
    'SwSTEP 2.0',
    'SolidWorks 2019',
    '' );
FILE_SCHEMA (( 'CONFIG_CONTROL_DESIGN' ));
ENDSEC;

DATA;
#1 = EDGE_CURVE ( 'NONE', #94, #69, #175, .T. ) ;
#2 = DIRECTION ( 'NONE',  ( -0.000000000000000000, -0.000000000000000000, -1.000000000000000000 ) ) ;
#3 = CARTESIAN_POINT ( 'NONE',  ( -0.5000000000000000000, 0.000000000000000000, 100.0000000000000000 ) ) ;
#4 = PERSON_AND_ORGANIZATION ( #201, #31 ) ;
#5 = EDGE_CURVE ( 'NONE', #32, #94, #91, .T. ) ;
#6 = AXIS2_PLACEMENT_3D ( 'NONE', #78, #138, #159 ) ;
#7 = APPROVAL_ROLE ( '' ) ;
#8 = APPROVAL_STATUS ( 'not_yet_approved' ) ;
#9 = PERSON_AND_ORGANIZATION ( #201, #31 ) ;
#10 = ADVANCED_FACE ( 'NONE', ( #15 ), #130, .T. ) ;
#11 = ORIENTED_EDGE ( 'NONE', *, *, #147, .F. ) ;
#12 = ORIENTED_EDGE ( 'NONE', *, *, #1, .F. ) ;
#13 = ORIENTED_EDGE ( 'NONE', *, *, #198, .T. ) ;
#14 = ORIENTED_EDGE ( 'NONE', *, *, #189, .F. ) ;
#15 = FACE_OUTER_BOUND ( 'NONE', #212, .T. ) ;
#16 = CC_DESIGN_DATE_AND_TIME_ASSIGNMENT ( #240, #80, ( #17 ) ) ;
#17 = SECURITY_CLASSIFICATION ( '', '', #243 ) ;
#18 = CARTESIAN_POINT ( 'NONE',  ( -1.250000000000000000, 0.000000000000000000, 1.199999999999999956 ) ) ;
#19 = DIRECTION ( 'NONE',  ( 1.000000000000000000, 0.000000000000000000, 0.000000000000000000 ) ) ;
#20 = DIRECTION ( 'NONE',  ( 0.000000000000000000, 0.000000000000000000, 1.000000000000000000 ) ) ;
#21 = ADVANCED_FACE ( 'NONE', ( #170 ), #226, .T. ) ;
#22 = CIRCLE ( 'NONE', #51, 1.250000000000000000 ) ;
#23 = AXIS2_PLACEMENT_3D ( 'NONE', #214, #117, #199 ) ;
#24 = DIRECTION ( 'NONE',  ( 1.000000000000000000, 0.000000000000000000, -0.000000000000000000 ) ) ;
#25 = CARTESIAN_POINT ( 'NONE',  ( 0.000000000000000000, 0.000000000000000000, 1.199999999999999956 ) ) ;
#26 = COORDINATED_UNIVERSAL_TIME_OFFSET ( 1, 0, .AHEAD. ) ;
#27 = APPROVAL_STATUS ( 'not_yet_approved' ) ;
#28 = PERSON_AND_ORGANIZATION ( #201, #31 ) ;
#29 = ADVANCED_FACE ( 'NONE', ( #211 ), #35, .T. ) ;
#30 = AXIS2_PLACEMENT_3D ( 'NONE', #234, #82, #115 ) ;
#31 = ORGANIZATION ( 'NEURÈENÝ', 'NEURÈENÝ', '' ) ;
#32 = VERTEX_POINT ( 'NONE', #157 ) ;
#33 = CARTESIAN_POINT ( 'NONE',  ( 0.000000000000000000, 0.000000000000000000, 100.0000000000000000 ) ) ;
#34 = DIRECTION ( 'NONE',  ( 1.000000000000000000, 0.000000000000000000, 0.000000000000000000 ) ) ;
#35 = PLANE ( 'NONE',  #30 ) ;
#36 = ORIENTED_EDGE ( 'NONE', *, *, #81, .F. ) ;
#37 = EDGE_CURVE ( 'NONE', #94, #32, #244, .T. ) ;
#38 = CARTESIAN_POINT ( 'NONE',  ( 0.5000000000000000000, 6.123233995736766036E-17, 1.199999999999999956 ) ) ;
#39 = APPROVAL_PERSON_ORGANIZATION ( #28, #84, #7 ) ;
#40 = CARTESIAN_POINT ( 'NONE',  ( 0.000000000000000000, 0.000000000000000000, 1.199999999999999956 ) ) ;
#41 = CARTESIAN_POINT ( 'NONE',  ( 0.000000000000000000, 0.000000000000000000, 1.199999999999999956 ) ) ;
#42 = APPROVAL_DATE_TIME ( #57, #195 ) ;
#43 = CARTESIAN_POINT ( 'NONE',  ( 0.000000000000000000, 0.000000000000000000, 0.000000000000000000 ) ) ;
#44 = CARTESIAN_POINT ( 'NONE',  ( 0.000000000000000000, 0.000000000000000000, 100.0000000000000000 ) ) ;
#45 = ADVANCED_FACE ( 'NONE', ( #236 ), #239, .F. ) ;
#46 = PERSON_AND_ORGANIZATION ( #201, #31 ) ;
#47 = EDGE_CURVE ( 'NONE', #168, #190, #197, .T. ) ;
#48 = CARTESIAN_POINT ( 'NONE',  ( 0.000000000000000000, 0.000000000000000000, 1.199999999999999956 ) ) ;
#49 = ORIENTED_EDGE ( 'NONE', *, *, #147, .T. ) ;
#50 = DIRECTION ( 'NONE',  ( -1.000000000000000000, 0.000000000000000000, 0.000000000000000000 ) ) ;
#51 = AXIS2_PLACEMENT_3D ( 'NONE', #25, #181, #59 ) ;
#52 = AXIS2_PLACEMENT_3D ( 'NONE', #44, #133, #116 ) ;
#53 = ORIENTED_EDGE ( 'NONE', *, *, #37, .T. ) ;
#54 = DIRECTION ( 'NONE',  ( 0.000000000000000000, 0.000000000000000000, 1.000000000000000000 ) ) ;
#55 = CALENDAR_DATE ( 2023, 31, 1 ) ;
#56 = DIRECTION ( 'NONE',  ( 0.000000000000000000, 0.000000000000000000, 1.000000000000000000 ) ) ;
#57 = DATE_AND_TIME ( #55, #88 ) ;
#58 = CARTESIAN_POINT ( 'NONE',  ( -0.5000000000000000000, 0.000000000000000000, 1.199999999999999956 ) ) ;
#59 = DIRECTION ( 'NONE',  ( 1.000000000000000000, 0.000000000000000000, 0.000000000000000000 ) ) ;
#60 = PRODUCT ( '4c92', '4c92', '', ( #146 ) ) ;
#61 = VECTOR ( 'NONE', #205, 1000.000000000000000 ) ;
#62 = CC_DESIGN_PERSON_AND_ORGANIZATION_ASSIGNMENT ( #186, #245, ( #215 ) ) ;
#63 = DATE_TIME_ROLE ( 'creation_date' ) ;
#64 = DATE_AND_TIME ( #242, #95 ) ;
#65 = CC_DESIGN_PERSON_AND_ORGANIZATION_ASSIGNMENT ( #46, #124, ( #17 ) ) ;
#66 = COORDINATED_UNIVERSAL_TIME_OFFSET ( 1, 0, .AHEAD. ) ;
#67 = DIRECTION ( 'NONE',  ( -0.000000000000000000, -0.000000000000000000, -1.000000000000000000 ) ) ;
#68 = LOCAL_TIME ( 15, 49, 40.00000000000000000, #207 ) ;
#69 = VERTEX_POINT ( 'NONE', #38 ) ;
#70 = EDGE_LOOP ( 'NONE', ( #228, #172 ) ) ;
#71 = MANIFOLD_SOLID_BREP ( 'Pøidat vysunutím3', #229 ) ;
#72 = EDGE_LOOP ( 'NONE', ( #92, #132 ) ) ;
#73 = CC_DESIGN_APPROVAL ( #195, ( #17 ) ) ;
#74 = ORIENTED_EDGE ( 'NONE', *, *, #238, .F. ) ;
#75 = CARTESIAN_POINT ( 'NONE',  ( 0.000000000000000000, 0.000000000000000000, 0.000000000000000000 ) ) ;
#76 = PLANE ( 'NONE',  #174 ) ;
#77 = PERSON_AND_ORGANIZATION ( #201, #31 ) ;
#78 = CARTESIAN_POINT ( 'NONE',  ( 0.000000000000000000, 0.000000000000000000, 1.199999999999999956 ) ) ;
#79 = CARTESIAN_POINT ( 'NONE',  ( 1.250000000000000000, 1.530808498934191571E-16, 1.199999999999999956 ) ) ;
#80 = DATE_TIME_ROLE ( 'classification_date' ) ;
#81 = EDGE_CURVE ( 'NONE', #110, #168, #22, .T. ) ;
#82 = DIRECTION ( 'NONE',  ( 0.000000000000000000, 0.000000000000000000, 1.000000000000000000 ) ) ;
#83 = CALENDAR_DATE ( 2023, 31, 1 ) ;
#84 = APPROVAL ( #8, 'NEURÈENÝ' ) ;
#85 = PERSON_AND_ORGANIZATION ( #201, #31 ) ;
#86 = PERSON_AND_ORGANIZATION_ROLE ( 'design_owner' ) ;
#87 = AXIS2_PLACEMENT_3D ( 'NONE', #246, #67, #210 ) ;
#88 = LOCAL_TIME ( 15, 49, 40.00000000000000000, #135 ) ;
#89 = EDGE_LOOP ( 'NONE', ( #11, #14 ) ) ;
#90 = ORIENTED_EDGE ( 'NONE', *, *, #47, .F. ) ;
#91 = CIRCLE ( 'NONE', #235, 0.5000000000000000000 ) ;
#92 = ORIENTED_EDGE ( 'NONE', *, *, #125, .F. ) ;
#93 = PRODUCT_RELATED_PRODUCT_CATEGORY ( 'detail', '', ( #60 ) ) ;
#94 = VERTEX_POINT ( 'NONE', #179 ) ;
#95 = LOCAL_TIME ( 15, 49, 40.00000000000000000, #143 ) ;
#96 = ADVANCED_FACE ( 'NONE', ( #156, #139 ), #76, .T. ) ;
#97 = LINE ( 'NONE', #121, #61 ) ;
#98 = CARTESIAN_POINT ( 'NONE',  ( -1.250000000000000000, 0.000000000000000000, 0.000000000000000000 ) ) ;
#99 = CALENDAR_DATE ( 2023, 31, 1 ) ;
#100 = DIRECTION ( 'NONE',  ( 1.000000000000000000, 0.000000000000000000, 0.000000000000000000 ) ) ;
#101 = CIRCLE ( 'NONE', #6, 1.250000000000000000 ) ;
#102 = FACE_OUTER_BOUND ( 'NONE', #109, .T. ) ;
#103 = CARTESIAN_POINT ( 'NONE',  ( 1.250000000000000000, 1.530808498934191571E-16, 0.000000000000000000 ) ) ;
#104 =( LENGTH_UNIT ( ) NAMED_UNIT ( * ) SI_UNIT ( .MILLI., .METRE. ) );
#105 = APPLICATION_PROTOCOL_DEFINITION ( 'international standard', 'config_control_design', 1994, #108 ) ;
#106 = AXIS2_PLACEMENT_3D ( 'NONE', #217, #253, #119 ) ;
#107 = CIRCLE ( 'NONE', #225, 0.5000000000000000000 ) ;
#108 = APPLICATION_CONTEXT ( 'configuration controlled 3d designs of mechanical parts and assemblies' ) ;
#109 = EDGE_LOOP ( 'NONE', ( #12, #191, #13, #49 ) ) ;
#110 = VERTEX_POINT ( 'NONE', #18 ) ;
#111 = ADVANCED_FACE ( 'NONE', ( #237 ), #219, .T. ) ;
#112 = AXIS2_PLACEMENT_3D ( 'NONE', #75, #136, #180 ) ;
#113 = UNCERTAINTY_MEASURE_WITH_UNIT (LENGTH_MEASURE( 1.000000000000000082E-05 ), #104, 'distance_accuracy_value', 'NONE');
#114 = CARTESIAN_POINT ( 'NONE',  ( 0.5000000000000000000, 6.123233995736766036E-17, 100.0000000000000000 ) ) ;
#115 = DIRECTION ( 'NONE',  ( 1.000000000000000000, 0.000000000000000000, -0.000000000000000000 ) ) ;
#116 = DIRECTION ( 'NONE',  ( -1.000000000000000000, 0.000000000000000000, 0.000000000000000000 ) ) ;
#117 = DIRECTION ( 'NONE',  ( 0.000000000000000000, 0.000000000000000000, 1.000000000000000000 ) ) ;
#118 = SHAPE_DEFINITION_REPRESENTATION ( #145, #193 ) ;
#119 = DIRECTION ( 'NONE',  ( 1.000000000000000000, 0.000000000000000000, -0.000000000000000000 ) ) ;
#120 = CC_DESIGN_APPROVAL ( #84, ( #215 ) ) ;
#121 = CARTESIAN_POINT ( 'NONE',  ( -1.250000000000000000, 0.000000000000000000, 1.199999999999999956 ) ) ;
#122 = DIRECTION ( 'NONE',  ( 0.000000000000000000, 0.000000000000000000, 1.000000000000000000 ) ) ;
#123 = PERSON_AND_ORGANIZATION ( #201, #31 ) ;
#124 = PERSON_AND_ORGANIZATION_ROLE ( 'classification_officer' ) ;
#125 = EDGE_CURVE ( 'NONE', #194, #190, #254, .T. ) ;
#126 = CC_DESIGN_APPROVAL ( #165, ( #220 ) ) ;
#127 = ORIENTED_EDGE ( 'NONE', *, *, #1, .T. ) ;
#128 = ORIENTED_EDGE ( 'NONE', *, *, #137, .F. ) ;
#129 = AXIS2_PLACEMENT_3D ( 'NONE', #158, #54, #19 ) ;
#130 = CYLINDRICAL_SURFACE ( 'NONE', #87, 1.250000000000000000 ) ;
#131 = CIRCLE ( 'NONE', #23, 0.5000000000000000000 ) ;
#132 = ORIENTED_EDGE ( 'NONE', *, *, #206, .F. ) ;
#133 = DIRECTION ( 'NONE',  ( -0.000000000000000000, -0.000000000000000000, -1.000000000000000000 ) ) ;
#134 = DIRECTION ( 'NONE',  ( -1.000000000000000000, 0.000000000000000000, 0.000000000000000000 ) ) ;
#135 = COORDINATED_UNIVERSAL_TIME_OFFSET ( 1, 0, .AHEAD. ) ;
#136 = DIRECTION ( 'NONE',  ( 0.000000000000000000, 0.000000000000000000, 1.000000000000000000 ) ) ;
#137 = EDGE_CURVE ( 'NONE', #110, #194, #97, .T. ) ;
#138 = DIRECTION ( 'NONE',  ( 0.000000000000000000, 0.000000000000000000, 1.000000000000000000 ) ) ;
#139 = FACE_OUTER_BOUND ( 'NONE', #70, .T. ) ;
#140 = VECTOR ( 'NONE', #202, 1000.000000000000000 ) ;
#141 = APPROVAL_PERSON_ORGANIZATION ( #123, #165, #167 ) ;
#142 = DIRECTION ( 'NONE',  ( 1.000000000000000000, 0.000000000000000000, 0.000000000000000000 ) ) ;
#143 = COORDINATED_UNIVERSAL_TIME_OFFSET ( 1, 0, .AHEAD. ) ;
#144 = APPROVAL_DATE_TIME ( #64, #84 ) ;
#145 = PRODUCT_DEFINITION_SHAPE ( 'NONE', 'NONE',  #220 ) ;
#146 = MECHANICAL_CONTEXT ( 'NONE', #232, 'mechanical' ) ;
#147 = EDGE_CURVE ( 'NONE', #153, #69, #107, .T. ) ;
#148 = AXIS2_PLACEMENT_3D ( 'NONE', #223, #122, #142 ) ;
#149 = ORIENTED_EDGE ( 'NONE', *, *, #47, .T. ) ;
#150 = ORIENTED_EDGE ( 'NONE', *, *, #5, .T. ) ;
#151 = DIRECTION ( 'NONE',  ( 0.000000000000000000, 0.000000000000000000, 1.000000000000000000 ) ) ;
#152 = ORIENTED_EDGE ( 'NONE', *, *, #198, .F. ) ;
#153 = VERTEX_POINT ( 'NONE', #58 ) ;
#154 = CC_DESIGN_PERSON_AND_ORGANIZATION_ASSIGNMENT ( #4, #185, ( #220 ) ) ;
#155 = CYLINDRICAL_SURFACE ( 'NONE', #188, 0.5000000000000000000 ) ;
#156 = FACE_BOUND ( 'NONE', #89, .T. ) ;
#157 = CARTESIAN_POINT ( 'NONE',  ( -0.5000000000000000000, 0.000000000000000000, 100.0000000000000000 ) ) ;
#158 = CARTESIAN_POINT ( 'NONE',  ( 0.000000000000000000, 0.000000000000000000, 100.0000000000000000 ) ) ;
#159 = DIRECTION ( 'NONE',  ( 1.000000000000000000, 0.000000000000000000, 0.000000000000000000 ) ) ;
#160 = APPROVAL_PERSON_ORGANIZATION ( #77, #195, #218 ) ;
#161 =( NAMED_UNIT ( * ) SI_UNIT ( $, .STERADIAN. ) SOLID_ANGLE_UNIT ( ) );
#162 = CC_DESIGN_PERSON_AND_ORGANIZATION_ASSIGNMENT ( #85, #164, ( #215 ) ) ;
#163 = CALENDAR_DATE ( 2023, 31, 1 ) ;
#164 = PERSON_AND_ORGANIZATION_ROLE ( 'design_supplier' ) ;
#165 = APPROVAL ( #27, 'NEURÈENÝ' ) ;
#166 =( GEOMETRIC_REPRESENTATION_CONTEXT ( 3 ) GLOBAL_UNCERTAINTY_ASSIGNED_CONTEXT ( ( #113 ) ) GLOBAL_UNIT_ASSIGNED_CONTEXT ( ( #104, #222, #161 ) ) REPRESENTATION_CONTEXT ( 'NONE', 'WORKASPACE' ) );
#167 = APPROVAL_ROLE ( '' ) ;
#168 = VERTEX_POINT ( 'NONE', #182 ) ;
#169 = ORIENTED_EDGE ( 'NONE', *, *, #37, .F. ) ;
#170 = FACE_OUTER_BOUND ( 'NONE', #231, .T. ) ;
#171 = DESIGN_CONTEXT ( 'detailed design', #108, 'design' ) ;
#172 = ORIENTED_EDGE ( 'NONE', *, *, #238, .T. ) ;
#173 = ADVANCED_FACE ( 'NONE', ( #102 ), #155, .T. ) ;
#174 = AXIS2_PLACEMENT_3D ( 'NONE', #41, #56, #24 ) ;
#175 = LINE ( 'NONE', #114, #203 ) ;
#176 = LOCAL_TIME ( 15, 49, 40.00000000000000000, #26 ) ;
#177 = DIRECTION ( 'NONE',  ( 0.000000000000000000, 0.000000000000000000, 1.000000000000000000 ) ) ;
#178 = APPROVAL_STATUS ( 'not_yet_approved' ) ;
#179 = CARTESIAN_POINT ( 'NONE',  ( 0.5000000000000000000, 6.123233995736766036E-17, 100.0000000000000000 ) ) ;
#180 = DIRECTION ( 'NONE',  ( 1.000000000000000000, 0.000000000000000000, 0.000000000000000000 ) ) ;
#181 = DIRECTION ( 'NONE',  ( 0.000000000000000000, 0.000000000000000000, 1.000000000000000000 ) ) ;
#182 = CARTESIAN_POINT ( 'NONE',  ( 1.250000000000000000, 1.530808498934191571E-16, 1.199999999999999956 ) ) ;
#183 = DATE_AND_TIME ( #163, #204 ) ;
#184 = AXIS2_PLACEMENT_3D ( 'NONE', #43, #20, #100 ) ;
#185 = PERSON_AND_ORGANIZATION_ROLE ( 'creator' ) ;
#186 = PERSON_AND_ORGANIZATION ( #201, #31 ) ;
#187 = APPLICATION_PROTOCOL_DEFINITION ( 'international standard', 'config_control_design', 1994, #232 ) ;
#188 = AXIS2_PLACEMENT_3D ( 'NONE', #216, #200, #134 ) ;
#189 = EDGE_CURVE ( 'NONE', #69, #153, #131, .T. ) ;
#190 = VERTEX_POINT ( 'NONE', #103 ) ;
#191 = ORIENTED_EDGE ( 'NONE', *, *, #5, .F. ) ;
#192 = DIRECTION ( 'NONE',  ( -0.000000000000000000, -0.000000000000000000, -1.000000000000000000 ) ) ;
#193 = ADVANCED_BREP_SHAPE_REPRESENTATION ( '4c92', ( #71, #148 ), #166 ) ;
#194 = VERTEX_POINT ( 'NONE', #98 ) ;
#195 = APPROVAL ( #178, 'NEURÈENÝ' ) ;
#196 = DIRECTION ( 'NONE',  ( -0.000000000000000000, -0.000000000000000000, -1.000000000000000000 ) ) ;
#197 = LINE ( 'NONE', #79, #140 ) ;
#198 = EDGE_CURVE ( 'NONE', #32, #153, #251, .T. ) ;
#199 = DIRECTION ( 'NONE',  ( 1.000000000000000000, 0.000000000000000000, 0.000000000000000000 ) ) ;
#200 = DIRECTION ( 'NONE',  ( -0.000000000000000000, -0.000000000000000000, -1.000000000000000000 ) ) ;
#201 = PERSON ( 'NEURÈENÝ', 'NEURÈENÝ', 'NEURÈENÝ', ('NEURÈENÝ'), ('NEURÈENÝ'), ('NEURÈENÝ') ) ;
#202 = DIRECTION ( 'NONE',  ( -0.000000000000000000, -0.000000000000000000, -1.000000000000000000 ) ) ;
#203 = VECTOR ( 'NONE', #196, 1000.000000000000000 ) ;
#204 = LOCAL_TIME ( 15, 49, 40.00000000000000000, #66 ) ;
#205 = DIRECTION ( 'NONE',  ( -0.000000000000000000, -0.000000000000000000, -1.000000000000000000 ) ) ;
#206 = EDGE_CURVE ( 'NONE', #190, #194, #208, .T. ) ;
#207 = COORDINATED_UNIVERSAL_TIME_OFFSET ( 1, 0, .AHEAD. ) ;
#208 = CIRCLE ( 'NONE', #184, 1.250000000000000000 ) ;
#209 = ORIENTED_EDGE ( 'NONE', *, *, #206, .T. ) ;
#210 = DIRECTION ( 'NONE',  ( -1.000000000000000000, 0.000000000000000000, 0.000000000000000000 ) ) ;
#211 = FACE_OUTER_BOUND ( 'NONE', #248, .T. ) ;
#212 = EDGE_LOOP ( 'NONE', ( #90, #36, #233, #227 ) ) ;
#213 = CC_DESIGN_PERSON_AND_ORGANIZATION_ASSIGNMENT ( #9, #86, ( #60 ) ) ;
#214 = CARTESIAN_POINT ( 'NONE',  ( 0.000000000000000000, 0.000000000000000000, 1.199999999999999956 ) ) ;
#215 = PRODUCT_DEFINITION_FORMATION_WITH_SPECIFIED_SOURCE ( 'LIBOVOLNÝ', '', #60, .NOT_KNOWN. ) ;
#216 = CARTESIAN_POINT ( 'NONE',  ( 0.000000000000000000, 0.000000000000000000, 100.0000000000000000 ) ) ;
#217 = CARTESIAN_POINT ( 'NONE',  ( 0.000000000000000000, 0.000000000000000000, 0.000000000000000000 ) ) ;
#218 = APPROVAL_ROLE ( '' ) ;
#219 = CYLINDRICAL_SURFACE ( 'NONE', #52, 0.5000000000000000000 ) ;
#220 = PRODUCT_DEFINITION ( 'NEZNÁMÝ', '', #215, #171 ) ;
#221 = CC_DESIGN_SECURITY_CLASSIFICATION ( #17, ( #215 ) ) ;
#222 =( NAMED_UNIT ( * ) PLANE_ANGLE_UNIT ( ) SI_UNIT ( $, .RADIAN. ) );
#223 = CARTESIAN_POINT ( 'NONE',  ( 0.000000000000000000, 0.000000000000000000, 0.000000000000000000 ) ) ;
#224 = APPROVAL_DATE_TIME ( #183, #165 ) ;
#225 = AXIS2_PLACEMENT_3D ( 'NONE', #40, #177, #255 ) ;
#226 = CYLINDRICAL_SURFACE ( 'NONE', #249, 1.250000000000000000 ) ;
#227 = ORIENTED_EDGE ( 'NONE', *, *, #125, .T. ) ;
#228 = ORIENTED_EDGE ( 'NONE', *, *, #81, .T. ) ;
#229 = CLOSED_SHELL ( 'NONE', ( #111, #21, #10, #96, #45, #173, #29 ) ) ;
#230 = VECTOR ( 'NONE', #2, 1000.000000000000000 ) ;
#231 = EDGE_LOOP ( 'NONE', ( #74, #149, #209, #128 ) ) ;
#232 = APPLICATION_CONTEXT ( 'configuration controlled 3d designs of mechanical parts and assemblies' ) ;
#233 = ORIENTED_EDGE ( 'NONE', *, *, #137, .T. ) ;
#234 = CARTESIAN_POINT ( 'NONE',  ( 0.000000000000000000, 0.000000000000000000, 100.0000000000000000 ) ) ;
#235 = AXIS2_PLACEMENT_3D ( 'NONE', #33, #151, #34 ) ;
#236 = FACE_OUTER_BOUND ( 'NONE', #72, .T. ) ;
#237 = FACE_OUTER_BOUND ( 'NONE', #247, .T. ) ;
#238 = EDGE_CURVE ( 'NONE', #168, #110, #101, .T. ) ;
#239 = PLANE ( 'NONE',  #106 ) ;
#240 = DATE_AND_TIME ( #99, #68 ) ;
#241 = DATE_AND_TIME ( #83, #176 ) ;
#242 = CALENDAR_DATE ( 2023, 31, 1 ) ;
#243 = SECURITY_CLASSIFICATION_LEVEL ( 'unclassified' ) ;
#244 = CIRCLE ( 'NONE', #129, 0.5000000000000000000 ) ;
#245 = PERSON_AND_ORGANIZATION_ROLE ( 'creator' ) ;
#246 = CARTESIAN_POINT ( 'NONE',  ( 0.000000000000000000, 0.000000000000000000, 1.199999999999999956 ) ) ;
#247 = EDGE_LOOP ( 'NONE', ( #169, #127, #250, #152 ) ) ;
#248 = EDGE_LOOP ( 'NONE', ( #150, #53 ) ) ;
#249 = AXIS2_PLACEMENT_3D ( 'NONE', #48, #192, #50 ) ;
#250 = ORIENTED_EDGE ( 'NONE', *, *, #189, .T. ) ;
#251 = LINE ( 'NONE', #3, #230 ) ;
#252 = CC_DESIGN_DATE_AND_TIME_ASSIGNMENT ( #241, #63, ( #220 ) ) ;
#253 = DIRECTION ( 'NONE',  ( 0.000000000000000000, 0.000000000000000000, 1.000000000000000000 ) ) ;
#254 = CIRCLE ( 'NONE', #112, 1.250000000000000000 ) ;
#255 = DIRECTION ( 'NONE',  ( 1.000000000000000000, 0.000000000000000000, 0.000000000000000000 ) ) ;
ENDSEC;
END-ISO-10303-21;
