ISO-10303-21;
HEADER;
FILE_DESCRIPTION (( 'STEP AP203' ),
    '1' );
FILE_NAME ('949f.STEP',
    '2023-02-13T12:06:04',
    ( '' ),
    ( '' ),
    'SwSTEP 2.0',
    'SolidWorks 2019',
    '' );
FILE_SCHEMA (( 'CONFIG_CONTROL_DESIGN' ));
ENDSEC;

DATA;
#1 = PERSON_AND_ORGANIZATION ( #175, #79 ) ;
#2 = PRODUCT_DEFINITION_SHAPE ( 'NONE', 'NONE',  #49 ) ;
#3 = CARTESIAN_POINT ( 'NONE',  ( -8.000000000000000000, 0.000000000000000000, 5.000000000000000000 ) ) ;
#4 = EDGE_CURVE ( 'NONE', #28, #109, #250, .T. ) ;
#5 = CARTESIAN_POINT ( 'NONE',  ( 8.000000000000000000, 9.797174393178825657E-16, 5.000000000000000000 ) ) ;
#6 = DIRECTION ( 'NONE',  ( -0.000000000000000000, -0.000000000000000000, -1.000000000000000000 ) ) ;
#7 = DIRECTION ( 'NONE',  ( -1.000000000000000000, 0.000000000000000000, 0.000000000000000000 ) ) ;
#8 = CIRCLE ( 'NONE', #223, 5.000000000000000888 ) ;
#9 = CC_DESIGN_SECURITY_CLASSIFICATION ( #197, ( #103 ) ) ;
#10 = ORIENTED_EDGE ( 'NONE', *, *, #149, .F. ) ;
#11 = CARTESIAN_POINT ( 'NONE',  ( 0.000000000000000000, 0.000000000000000000, 5.000000000000000000 ) ) ;
#12 = ORIENTED_EDGE ( 'NONE', *, *, #214, .T. ) ;
#13 = EDGE_CURVE ( 'NONE', #135, #28, #121, .T. ) ;
#14 = ORIENTED_EDGE ( 'NONE', *, *, #31, .F. ) ;
#15 = CYLINDRICAL_SURFACE ( 'NONE', #211, 5.000000000000000888 ) ;
#16 = ADVANCED_FACE ( 'NONE', ( #147 ), #15, .T. ) ;
#17 = MECHANICAL_CONTEXT ( 'NONE', #224, 'mechanical' ) ;
#18 = PERSON_AND_ORGANIZATION ( #175, #79 ) ;
#19 = ADVANCED_FACE ( 'NONE', ( #184 ), #88, .T. ) ;
#20 = VECTOR ( 'NONE', #173, 1000.000000000000000 ) ;
#21 = DATE_AND_TIME ( #194, #118 ) ;
#22 = CARTESIAN_POINT ( 'NONE',  ( 0.000000000000000000, 0.000000000000000000, 400.0000000000000000 ) ) ;
#23 = DIRECTION ( 'NONE',  ( 1.000000000000000000, 0.000000000000000000, 0.000000000000000000 ) ) ;
#24 = DIRECTION ( 'NONE',  ( 1.000000000000000000, 0.000000000000000000, 0.000000000000000000 ) ) ;
#25 = ORIENTED_EDGE ( 'NONE', *, *, #77, .F. ) ;
#26 = DIRECTION ( 'NONE',  ( 1.000000000000000000, 0.000000000000000000, 0.000000000000000000 ) ) ;
#27 = DATE_TIME_ROLE ( 'classification_date' ) ;
#28 = VERTEX_POINT ( 'NONE', #132 ) ;
#29 = ORIENTED_EDGE ( 'NONE', *, *, #95, .T. ) ;
#30 = ORIENTED_EDGE ( 'NONE', *, *, #164, .T. ) ;
#31 = EDGE_CURVE ( 'NONE', #185, #230, #75, .T. ) ;
#32 = VERTEX_POINT ( 'NONE', #97 ) ;
#33 = COORDINATED_UNIVERSAL_TIME_OFFSET ( 1, 0, .AHEAD. ) ;
#34 = CARTESIAN_POINT ( 'NONE',  ( 5.000000000000000888, 6.123233995736766282E-16, 400.0000000000000000 ) ) ;
#35 = CARTESIAN_POINT ( 'NONE',  ( -5.000000000000000888, 0.000000000000000000, 400.0000000000000000 ) ) ;
#36 = CARTESIAN_POINT ( 'NONE',  ( 0.000000000000000000, 0.000000000000000000, 0.000000000000000000 ) ) ;
#37 = APPROVAL ( #86, 'NEURÈENÝ' ) ;
#38 = AXIS2_PLACEMENT_3D ( 'NONE', #89, #166, #70 ) ;
#39 = DIRECTION ( 'NONE',  ( -1.000000000000000000, 0.000000000000000000, 0.000000000000000000 ) ) ;
#40 = AXIS2_PLACEMENT_3D ( 'NONE', #245, #186, #66 ) ;
#41 = LOCAL_TIME ( 13, 6, 4.000000000000000000, #33 ) ;
#42 = CARTESIAN_POINT ( 'NONE',  ( 8.000000000000000000, 9.797174393178825657E-16, 5.000000000000000000 ) ) ;
#43 = CALENDAR_DATE ( 2023, 13, 2 ) ;
#44 = DIRECTION ( 'NONE',  ( -1.000000000000000000, 0.000000000000000000, 0.000000000000000000 ) ) ;
#45 = PRODUCT ( '949f', '949f', '', ( #17 ) ) ;
#46 = APPROVAL_DATE_TIME ( #148, #37 ) ;
#47 = ORIENTED_EDGE ( 'NONE', *, *, #4, .T. ) ;
#48 = CIRCLE ( 'NONE', #87, 5.000000000000000888 ) ;
#49 = PRODUCT_DEFINITION ( 'NEZNÁMÝ', '', #103, #59 ) ;
#50 = LOCAL_TIME ( 13, 6, 4.000000000000000000, #213 ) ;
#51 = VERTEX_POINT ( 'NONE', #139 ) ;
#52 = APPROVAL_STATUS ( 'not_yet_approved' ) ;
#53 = LINE ( 'NONE', #35, #20 ) ;
#54 = EDGE_CURVE ( 'NONE', #135, #51, #53, .T. ) ;
#55 = PERSON_AND_ORGANIZATION ( #175, #79 ) ;
#56 = CALENDAR_DATE ( 2023, 13, 2 ) ;
#57 = PERSON_AND_ORGANIZATION ( #175, #79 ) ;
#58 = AXIS2_PLACEMENT_3D ( 'NONE', #122, #200, #98 ) ;
#59 = DESIGN_CONTEXT ( 'detailed design', #113, 'design' ) ;
#60 = CARTESIAN_POINT ( 'NONE',  ( 0.000000000000000000, 0.000000000000000000, 5.000000000000000000 ) ) ;
#61 = ORIENTED_EDGE ( 'NONE', *, *, #54, .F. ) ;
#62 = ADVANCED_FACE ( 'NONE', ( #114 ), #192, .F. ) ;
#63 = CARTESIAN_POINT ( 'NONE',  ( 8.000000000000000000, 9.797174393178825657E-16, 0.000000000000000000 ) ) ;
#64 = APPLICATION_PROTOCOL_DEFINITION ( 'international standard', 'config_control_design', 1994, #224 ) ;
#65 = APPROVAL_PERSON_ORGANIZATION ( #18, #227, #209 ) ;
#66 = DIRECTION ( 'NONE',  ( 1.000000000000000000, 0.000000000000000000, 0.000000000000000000 ) ) ;
#67 = COORDINATED_UNIVERSAL_TIME_OFFSET ( 1, 0, .AHEAD. ) ;
#68 = DIRECTION ( 'NONE',  ( -0.000000000000000000, -0.000000000000000000, -1.000000000000000000 ) ) ;
#69 = ADVANCED_FACE ( 'NONE', ( #117 ), #196, .T. ) ;
#70 = DIRECTION ( 'NONE',  ( 1.000000000000000000, 0.000000000000000000, 0.000000000000000000 ) ) ;
#71 = EDGE_LOOP ( 'NONE', ( #102, #206 ) ) ;
#72 = ORIENTED_EDGE ( 'NONE', *, *, #31, .T. ) ;
#73 = CALENDAR_DATE ( 2023, 13, 2 ) ;
#74 = PERSON_AND_ORGANIZATION_ROLE ( 'design_supplier' ) ;
#75 = CIRCLE ( 'NONE', #38, 8.000000000000000000 ) ;
#76 = SECURITY_CLASSIFICATION_LEVEL ( 'unclassified' ) ;
#77 = EDGE_CURVE ( 'NONE', #230, #32, #179, .T. ) ;
#78 = AXIS2_PLACEMENT_3D ( 'NONE', #11, #84, #176 ) ;
#79 = ORGANIZATION ( 'NEURÈENÝ', 'NEURÈENÝ', '' ) ;
#80 = CARTESIAN_POINT ( 'NONE',  ( 5.000000000000000888, 6.123233995736766282E-16, 5.000000000000000000 ) ) ;
#81 = ADVANCED_FACE ( 'NONE', ( #144 ), #157, .T. ) ;
#82 = DIRECTION ( 'NONE',  ( 0.000000000000000000, 0.000000000000000000, 1.000000000000000000 ) ) ;
#83 = DIRECTION ( 'NONE',  ( 0.000000000000000000, 0.000000000000000000, 1.000000000000000000 ) ) ;
#84 = DIRECTION ( 'NONE',  ( 0.000000000000000000, 0.000000000000000000, 1.000000000000000000 ) ) ;
#85 = ORIENTED_EDGE ( 'NONE', *, *, #222, .F. ) ;
#86 = APPROVAL_STATUS ( 'not_yet_approved' ) ;
#87 = AXIS2_PLACEMENT_3D ( 'NONE', #221, #159, #146 ) ;
#88 = CYLINDRICAL_SURFACE ( 'NONE', #133, 8.000000000000000000 ) ;
#89 = CARTESIAN_POINT ( 'NONE',  ( 0.000000000000000000, 0.000000000000000000, 5.000000000000000000 ) ) ;
#90 = EDGE_CURVE ( 'NONE', #32, #108, #127, .T. ) ;
#91 = EDGE_LOOP ( 'NONE', ( #243, #111 ) ) ;
#92 = CC_DESIGN_PERSON_AND_ORGANIZATION_ASSIGNMENT ( #116, #110, ( #103 ) ) ;
#93 = CARTESIAN_POINT ( 'NONE',  ( 0.000000000000000000, 0.000000000000000000, 0.000000000000000000 ) ) ;
#94 = CALENDAR_DATE ( 2023, 13, 2 ) ;
#95 = EDGE_CURVE ( 'NONE', #51, #109, #182, .T. ) ;
#96 = DIRECTION ( 'NONE',  ( 0.000000000000000000, 0.000000000000000000, 1.000000000000000000 ) ) ;
#97 = CARTESIAN_POINT ( 'NONE',  ( -8.000000000000000000, 0.000000000000000000, 0.000000000000000000 ) ) ;
#98 = DIRECTION ( 'NONE',  ( 1.000000000000000000, 0.000000000000000000, -0.000000000000000000 ) ) ;
#99 =( GEOMETRIC_REPRESENTATION_CONTEXT ( 3 ) GLOBAL_UNCERTAINTY_ASSIGNED_CONTEXT ( ( #198 ) ) GLOBAL_UNIT_ASSIGNED_CONTEXT ( ( #131, #229, #168 ) ) REPRESENTATION_CONTEXT ( 'NONE', 'WORKASPACE' ) );
#100 = DIRECTION ( 'NONE',  ( 0.000000000000000000, 0.000000000000000000, 1.000000000000000000 ) ) ;
#101 = DIRECTION ( 'NONE',  ( 0.000000000000000000, 0.000000000000000000, 1.000000000000000000 ) ) ;
#102 = ORIENTED_EDGE ( 'NONE', *, *, #13, .T. ) ;
#103 = PRODUCT_DEFINITION_FORMATION_WITH_SPECIFIED_SOURCE ( 'LIBOVOLNÝ', '', #45, .NOT_KNOWN. ) ;
#104 = CC_DESIGN_PERSON_AND_ORGANIZATION_ASSIGNMENT ( #55, #171, ( #197 ) ) ;
#105 = FACE_OUTER_BOUND ( 'NONE', #106, .T. ) ;
#106 = EDGE_LOOP ( 'NONE', ( #151, #72 ) ) ;
#107 = AXIS2_PLACEMENT_3D ( 'NONE', #238, #101, #24 ) ;
#108 = VERTEX_POINT ( 'NONE', #63 ) ;
#109 = VERTEX_POINT ( 'NONE', #80 ) ;
#110 = PERSON_AND_ORGANIZATION_ROLE ( 'creator' ) ;
#111 = ORIENTED_EDGE ( 'NONE', *, *, #214, .F. ) ;
#112 = APPROVAL_PERSON_ORGANIZATION ( #57, #232, #215 ) ;
#113 = APPLICATION_CONTEXT ( 'configuration controlled 3d designs of mechanical parts and assemblies' ) ;
#114 = FACE_OUTER_BOUND ( 'NONE', #187, .T. ) ;
#115 = DATE_AND_TIME ( #56, #50 ) ;
#116 = PERSON_AND_ORGANIZATION ( #175, #79 ) ;
#117 = FACE_OUTER_BOUND ( 'NONE', #231, .T. ) ;
#118 = LOCAL_TIME ( 13, 6, 4.000000000000000000, #154 ) ;
#119 = CC_DESIGN_PERSON_AND_ORGANIZATION_ASSIGNMENT ( #1, #251, ( #45 ) ) ;
#120 = CARTESIAN_POINT ( 'NONE',  ( -5.000000000000000888, 0.000000000000000000, 400.0000000000000000 ) ) ;
#121 = CIRCLE ( 'NONE', #40, 5.000000000000000888 ) ;
#122 = CARTESIAN_POINT ( 'NONE',  ( 0.000000000000000000, 0.000000000000000000, 400.0000000000000000 ) ) ;
#123 = ORIENTED_EDGE ( 'NONE', *, *, #4, .F. ) ;
#124 = LINE ( 'NONE', #42, #181 ) ;
#125 = ADVANCED_FACE ( 'NONE', ( #218 ), #142, .T. ) ;
#126 = CARTESIAN_POINT ( 'NONE',  ( 0.000000000000000000, 0.000000000000000000, 0.000000000000000000 ) ) ;
#127 = CIRCLE ( 'NONE', #107, 8.000000000000000000 ) ;
#128 = AXIS2_PLACEMENT_3D ( 'NONE', #36, #96, #253 ) ;
#129 = ORIENTED_EDGE ( 'NONE', *, *, #54, .T. ) ;
#130 = SHAPE_DEFINITION_REPRESENTATION ( #2, #242 ) ;
#131 =( LENGTH_UNIT ( ) NAMED_UNIT ( * ) SI_UNIT ( .MILLI., .METRE. ) );
#132 = CARTESIAN_POINT ( 'NONE',  ( 5.000000000000000888, 6.123233995736766282E-16, 400.0000000000000000 ) ) ;
#133 = AXIS2_PLACEMENT_3D ( 'NONE', #247, #68, #150 ) ;
#134 = LOCAL_TIME ( 13, 6, 4.000000000000000000, #235 ) ;
#135 = VERTEX_POINT ( 'NONE', #120 ) ;
#136 = ORIENTED_EDGE ( 'NONE', *, *, #77, .T. ) ;
#137 = VECTOR ( 'NONE', #203, 1000.000000000000000 ) ;
#138 = DATE_AND_TIME ( #94, #41 ) ;
#139 = CARTESIAN_POINT ( 'NONE',  ( -5.000000000000000888, 0.000000000000000000, 5.000000000000000000 ) ) ;
#140 = CC_DESIGN_DATE_AND_TIME_ASSIGNMENT ( #115, #191, ( #49 ) ) ;
#141 = PERSON_AND_ORGANIZATION ( #175, #79 ) ;
#142 = CYLINDRICAL_SURFACE ( 'NONE', #228, 8.000000000000000000 ) ;
#143 = DIRECTION ( 'NONE',  ( -0.000000000000000000, -0.000000000000000000, -1.000000000000000000 ) ) ;
#144 = FACE_OUTER_BOUND ( 'NONE', #71, .T. ) ;
#145 = PRODUCT_RELATED_PRODUCT_CATEGORY ( 'detail', '', ( #45 ) ) ;
#146 = DIRECTION ( 'NONE',  ( 1.000000000000000000, 0.000000000000000000, 0.000000000000000000 ) ) ;
#147 = FACE_OUTER_BOUND ( 'NONE', #165, .T. ) ;
#148 = DATE_AND_TIME ( #43, #252 ) ;
#149 = EDGE_CURVE ( 'NONE', #28, #135, #48, .T. ) ;
#150 = DIRECTION ( 'NONE',  ( -1.000000000000000000, 0.000000000000000000, 0.000000000000000000 ) ) ;
#151 = ORIENTED_EDGE ( 'NONE', *, *, #239, .T. ) ;
#152 = DATE_AND_TIME ( #73, #134 ) ;
#153 = APPROVAL_STATUS ( 'not_yet_approved' ) ;
#154 = COORDINATED_UNIVERSAL_TIME_OFFSET ( 1, 0, .AHEAD. ) ;
#155 = PERSON_AND_ORGANIZATION_ROLE ( 'creator' ) ;
#156 = CIRCLE ( 'NONE', #188, 8.000000000000000000 ) ;
#157 = PLANE ( 'NONE',  #58 ) ;
#158 = DIRECTION ( 'NONE',  ( 1.000000000000000000, 0.000000000000000000, 0.000000000000000000 ) ) ;
#159 = DIRECTION ( 'NONE',  ( 0.000000000000000000, 0.000000000000000000, 1.000000000000000000 ) ) ;
#160 = ORIENTED_EDGE ( 'NONE', *, *, #222, .T. ) ;
#161 = CC_DESIGN_APPROVAL ( #227, ( #103 ) ) ;
#162 = CARTESIAN_POINT ( 'NONE',  ( 0.000000000000000000, 0.000000000000000000, 5.000000000000000000 ) ) ;
#163 = DIRECTION ( 'NONE',  ( -0.000000000000000000, -0.000000000000000000, -1.000000000000000000 ) ) ;
#164 = EDGE_CURVE ( 'NONE', #108, #32, #156, .T. ) ;
#165 = EDGE_LOOP ( 'NONE', ( #123, #169, #129, #29 ) ) ;
#166 = DIRECTION ( 'NONE',  ( 0.000000000000000000, 0.000000000000000000, 1.000000000000000000 ) ) ;
#167 = ORIENTED_EDGE ( 'NONE', *, *, #90, .T. ) ;
#168 =( NAMED_UNIT ( * ) SI_UNIT ( $, .STERADIAN. ) SOLID_ANGLE_UNIT ( ) );
#169 = ORIENTED_EDGE ( 'NONE', *, *, #13, .F. ) ;
#170 = ADVANCED_FACE ( 'NONE', ( #220, #105 ), #178, .T. ) ;
#171 = PERSON_AND_ORGANIZATION_ROLE ( 'classification_officer' ) ;
#172 = AXIS2_PLACEMENT_3D ( 'NONE', #60, #82, #23 ) ;
#173 = DIRECTION ( 'NONE',  ( -0.000000000000000000, -0.000000000000000000, -1.000000000000000000 ) ) ;
#174 = APPROVAL_DATE_TIME ( #152, #232 ) ;
#175 = PERSON ( 'NEURÈENÝ', 'NEURÈENÝ', 'NEURÈENÝ', ('NEURÈENÝ'), ('NEURÈENÝ'), ('NEURÈENÝ') ) ;
#176 = DIRECTION ( 'NONE',  ( 1.000000000000000000, 0.000000000000000000, -0.000000000000000000 ) ) ;
#177 = CIRCLE ( 'NONE', #246, 8.000000000000000000 ) ;
#178 = PLANE ( 'NONE',  #78 ) ;
#179 = LINE ( 'NONE', #3, #137 ) ;
#180 = ORIENTED_EDGE ( 'NONE', *, *, #90, .F. ) ;
#181 = VECTOR ( 'NONE', #143, 1000.000000000000000 ) ;
#182 = CIRCLE ( 'NONE', #172, 5.000000000000000888 ) ;
#183 = APPROVAL_PERSON_ORGANIZATION ( #141, #37, #226 ) ;
#184 = FACE_OUTER_BOUND ( 'NONE', #190, .T. ) ;
#185 = VERTEX_POINT ( 'NONE', #5 ) ;
#186 = DIRECTION ( 'NONE',  ( 0.000000000000000000, 0.000000000000000000, 1.000000000000000000 ) ) ;
#187 = EDGE_LOOP ( 'NONE', ( #180, #208 ) ) ;
#188 = AXIS2_PLACEMENT_3D ( 'NONE', #126, #100, #26 ) ;
#189 = APPLICATION_PROTOCOL_DEFINITION ( 'international standard', 'config_control_design', 1994, #113 ) ;
#190 = EDGE_LOOP ( 'NONE', ( #85, #210, #136, #167 ) ) ;
#191 = DATE_TIME_ROLE ( 'creation_date' ) ;
#192 = PLANE ( 'NONE',  #195 ) ;
#193 = CC_DESIGN_PERSON_AND_ORGANIZATION_ASSIGNMENT ( #233, #155, ( #49 ) ) ;
#194 = CALENDAR_DATE ( 2023, 13, 2 ) ;
#195 = AXIS2_PLACEMENT_3D ( 'NONE', #93, #254, #236 ) ;
#196 = CYLINDRICAL_SURFACE ( 'NONE', #219, 5.000000000000000888 ) ;
#197 = SECURITY_CLASSIFICATION ( '', '', #76 ) ;
#198 = UNCERTAINTY_MEASURE_WITH_UNIT (LENGTH_MEASURE( 1.000000000000000082E-05 ), #131, 'distance_accuracy_value', 'NONE');
#199 = DIRECTION ( 'NONE',  ( 1.000000000000000000, 0.000000000000000000, 0.000000000000000000 ) ) ;
#200 = DIRECTION ( 'NONE',  ( 0.000000000000000000, 0.000000000000000000, 1.000000000000000000 ) ) ;
#201 = CARTESIAN_POINT ( 'NONE',  ( -8.000000000000000000, 0.000000000000000000, 5.000000000000000000 ) ) ;
#202 = EDGE_LOOP ( 'NONE', ( #14, #160, #30, #25 ) ) ;
#203 = DIRECTION ( 'NONE',  ( -0.000000000000000000, -0.000000000000000000, -1.000000000000000000 ) ) ;
#204 = MANIFOLD_SOLID_BREP ( 'Pøidat vysunutím3', #237 ) ;
#205 = CC_DESIGN_APPROVAL ( #232, ( #49 ) ) ;
#206 = ORIENTED_EDGE ( 'NONE', *, *, #149, .T. ) ;
#207 = VECTOR ( 'NONE', #163, 1000.000000000000000 ) ;
#208 = ORIENTED_EDGE ( 'NONE', *, *, #164, .F. ) ;
#209 = APPROVAL_ROLE ( '' ) ;
#210 = ORIENTED_EDGE ( 'NONE', *, *, #239, .F. ) ;
#211 = AXIS2_PLACEMENT_3D ( 'NONE', #248, #225, #44 ) ;
#212 = CC_DESIGN_PERSON_AND_ORGANIZATION_ASSIGNMENT ( #255, #74, ( #103 ) ) ;
#213 = COORDINATED_UNIVERSAL_TIME_OFFSET ( 1, 0, .AHEAD. ) ;
#214 = EDGE_CURVE ( 'NONE', #109, #51, #8, .T. ) ;
#215 = APPROVAL_ROLE ( '' ) ;
#216 = CARTESIAN_POINT ( 'NONE',  ( 0.000000000000000000, 0.000000000000000000, 5.000000000000000000 ) ) ;
#217 = CC_DESIGN_DATE_AND_TIME_ASSIGNMENT ( #21, #27, ( #197 ) ) ;
#218 = FACE_OUTER_BOUND ( 'NONE', #202, .T. ) ;
#219 = AXIS2_PLACEMENT_3D ( 'NONE', #22, #6, #7 ) ;
#220 = FACE_BOUND ( 'NONE', #91, .T. ) ;
#221 = CARTESIAN_POINT ( 'NONE',  ( 0.000000000000000000, 0.000000000000000000, 400.0000000000000000 ) ) ;
#222 = EDGE_CURVE ( 'NONE', #185, #108, #124, .T. ) ;
#223 = AXIS2_PLACEMENT_3D ( 'NONE', #162, #244, #158 ) ;
#224 = APPLICATION_CONTEXT ( 'configuration controlled 3d designs of mechanical parts and assemblies' ) ;
#225 = DIRECTION ( 'NONE',  ( -0.000000000000000000, -0.000000000000000000, -1.000000000000000000 ) ) ;
#226 = APPROVAL_ROLE ( '' ) ;
#227 = APPROVAL ( #52, 'NEURÈENÝ' ) ;
#228 = AXIS2_PLACEMENT_3D ( 'NONE', #216, #241, #39 ) ;
#229 =( NAMED_UNIT ( * ) PLANE_ANGLE_UNIT ( ) SI_UNIT ( $, .RADIAN. ) );
#230 = VERTEX_POINT ( 'NONE', #201 ) ;
#231 = EDGE_LOOP ( 'NONE', ( #10, #47, #12, #61 ) ) ;
#232 = APPROVAL ( #153, 'NEURÈENÝ' ) ;
#233 = PERSON_AND_ORGANIZATION ( #175, #79 ) ;
#234 = APPROVAL_DATE_TIME ( #138, #227 ) ;
#235 = COORDINATED_UNIVERSAL_TIME_OFFSET ( 1, 0, .AHEAD. ) ;
#236 = DIRECTION ( 'NONE',  ( 1.000000000000000000, 0.000000000000000000, -0.000000000000000000 ) ) ;
#237 = CLOSED_SHELL ( 'NONE', ( #69, #125, #19, #170, #62, #16, #81 ) ) ;
#238 = CARTESIAN_POINT ( 'NONE',  ( 0.000000000000000000, 0.000000000000000000, 0.000000000000000000 ) ) ;
#239 = EDGE_CURVE ( 'NONE', #230, #185, #177, .T. ) ;
#240 = CARTESIAN_POINT ( 'NONE',  ( 0.000000000000000000, 0.000000000000000000, 5.000000000000000000 ) ) ;
#241 = DIRECTION ( 'NONE',  ( -0.000000000000000000, -0.000000000000000000, -1.000000000000000000 ) ) ;
#242 = ADVANCED_BREP_SHAPE_REPRESENTATION ( '949f', ( #204, #128 ), #99 ) ;
#243 = ORIENTED_EDGE ( 'NONE', *, *, #95, .F. ) ;
#244 = DIRECTION ( 'NONE',  ( 0.000000000000000000, 0.000000000000000000, 1.000000000000000000 ) ) ;
#245 = CARTESIAN_POINT ( 'NONE',  ( 0.000000000000000000, 0.000000000000000000, 400.0000000000000000 ) ) ;
#246 = AXIS2_PLACEMENT_3D ( 'NONE', #240, #83, #199 ) ;
#247 = CARTESIAN_POINT ( 'NONE',  ( 0.000000000000000000, 0.000000000000000000, 5.000000000000000000 ) ) ;
#248 = CARTESIAN_POINT ( 'NONE',  ( 0.000000000000000000, 0.000000000000000000, 400.0000000000000000 ) ) ;
#249 = CC_DESIGN_APPROVAL ( #37, ( #197 ) ) ;
#250 = LINE ( 'NONE', #34, #207 ) ;
#251 = PERSON_AND_ORGANIZATION_ROLE ( 'design_owner' ) ;
#252 = LOCAL_TIME ( 13, 6, 4.000000000000000000, #67 ) ;
#253 = DIRECTION ( 'NONE',  ( 1.000000000000000000, 0.000000000000000000, 0.000000000000000000 ) ) ;
#254 = DIRECTION ( 'NONE',  ( 0.000000000000000000, 0.000000000000000000, 1.000000000000000000 ) ) ;
#255 = PERSON_AND_ORGANIZATION ( #175, #79 ) ;
ENDSEC;
END-ISO-10303-21;
