ISO-10303-21;
HEADER;
FILE_DESCRIPTION (( 'STEP AP203' ),
    '1' );
FILE_NAME ('51d1.STEP',
    '2023-02-13T15:07:04',
    ( '' ),
    ( '' ),
    'SwSTEP 2.0',
    'SolidWorks 2019',
    '' );
FILE_SCHEMA (( 'CONFIG_CONTROL_DESIGN' ));
ENDSEC;

DATA;
#1 = FACE_OUTER_BOUND ( 'NONE', #67, .T. ) ;
#2 = ORGANIZATION ( 'NEURÈENÝ', 'NEURÈENÝ', '' ) ;
#3 = EDGE_CURVE ( 'NONE', #96, #211, #180, .T. ) ;
#4 = DIRECTION ( 'NONE',  ( 1.000000000000000000, 0.000000000000000000, -0.000000000000000000 ) ) ;
#5 = PRODUCT_DEFINITION_SHAPE ( 'NONE', 'NONE',  #68 ) ;
#6 = AXIS2_PLACEMENT_3D ( 'NONE', #43, #124, #237 ) ;
#7 = PLANE ( 'NONE',  #6 ) ;
#8 = AXIS2_PLACEMENT_3D ( 'NONE', #77, #73, #227 ) ;
#9 = AXIS2_PLACEMENT_3D ( 'NONE', #10, #13, #239 ) ;
#10 = CARTESIAN_POINT ( 'NONE',  ( 0.000000000000000000, 0.000000000000000000, 3.000000000000000000 ) ) ;
#11 = CC_DESIGN_SECURITY_CLASSIFICATION ( #243, ( #46 ) ) ;
#12 = DIRECTION ( 'NONE',  ( 1.000000000000000000, 0.000000000000000000, 0.000000000000000000 ) ) ;
#13 = DIRECTION ( 'NONE',  ( 0.000000000000000000, 0.000000000000000000, 1.000000000000000000 ) ) ;
#14 = AXIS2_PLACEMENT_3D ( 'NONE', #123, #254, #200 ) ;
#15 = DATE_AND_TIME ( #128, #126 ) ;
#16 = APPLICATION_PROTOCOL_DEFINITION ( 'international standard', 'config_control_design', 1994, #61 ) ;
#17 = ORIENTED_EDGE ( 'NONE', *, *, #182, .F. ) ;
#18 = DIRECTION ( 'NONE',  ( -0.000000000000000000, -0.000000000000000000, -1.000000000000000000 ) ) ;
#19 = APPROVAL_STATUS ( 'not_yet_approved' ) ;
#20 = CC_DESIGN_APPROVAL ( #103, ( #243 ) ) ;
#21 = ORIENTED_EDGE ( 'NONE', *, *, #207, .F. ) ;
#22 = ORIENTED_EDGE ( 'NONE', *, *, #234, .F. ) ;
#23 = CARTESIAN_POINT ( 'NONE',  ( 0.000000000000000000, 0.000000000000000000, 0.000000000000000000 ) ) ;
#24 = ADVANCED_FACE ( 'NONE', ( #1 ), #236, .T. ) ;
#25 = ADVANCED_BREP_SHAPE_REPRESENTATION ( '51d1', ( #161, #99 ), #150 ) ;
#26 = DIRECTION ( 'NONE',  ( 0.000000000000000000, 0.000000000000000000, 1.000000000000000000 ) ) ;
#27 = DIRECTION ( 'NONE',  ( 0.000000000000000000, 0.000000000000000000, 1.000000000000000000 ) ) ;
#28 = PLANE ( 'NONE',  #148 ) ;
#29 = DIRECTION ( 'NONE',  ( -1.000000000000000000, 0.000000000000000000, 0.000000000000000000 ) ) ;
#30 = PERSON_AND_ORGANIZATION ( #202, #2 ) ;
#31 = DIRECTION ( 'NONE',  ( 1.000000000000000000, 0.000000000000000000, 0.000000000000000000 ) ) ;
#32 = CC_DESIGN_PERSON_AND_ORGANIZATION_ASSIGNMENT ( #95, #208, ( #218 ) ) ;
#33 = DIRECTION ( 'NONE',  ( -0.000000000000000000, -0.000000000000000000, -1.000000000000000000 ) ) ;
#34 = FACE_BOUND ( 'NONE', #64, .T. ) ;
#35 = EDGE_LOOP ( 'NONE', ( #17, #157, #100, #133 ) ) ;
#36 = EDGE_CURVE ( 'NONE', #96, #153, #249, .T. ) ;
#37 = DATE_AND_TIME ( #57, #39 ) ;
#38 = ORIENTED_EDGE ( 'NONE', *, *, #36, .T. ) ;
#39 = LOCAL_TIME ( 16, 7, 4.000000000000000000, #255 ) ;
#40 = CARTESIAN_POINT ( 'NONE',  ( 0.000000000000000000, 0.000000000000000000, 3.000000000000000000 ) ) ;
#41 = DESIGN_CONTEXT ( 'detailed design', #61, 'design' ) ;
#42 = ORIENTED_EDGE ( 'NONE', *, *, #53, .T. ) ;
#43 = CARTESIAN_POINT ( 'NONE',  ( 0.000000000000000000, 0.000000000000000000, 0.000000000000000000 ) ) ;
#44 = ADVANCED_FACE ( 'NONE', ( #139 ), #230, .T. ) ;
#45 = DIRECTION ( 'NONE',  ( -1.000000000000000000, 0.000000000000000000, 0.000000000000000000 ) ) ;
#46 = PRODUCT_DEFINITION_FORMATION_WITH_SPECIFIED_SOURCE ( 'LIBOVOLNÝ', '', #218, .NOT_KNOWN. ) ;
#47 = APPLICATION_CONTEXT ( 'configuration controlled 3d designs of mechanical parts and assemblies' ) ;
#48 = CARTESIAN_POINT ( 'NONE',  ( 0.000000000000000000, 0.000000000000000000, 500.0000000000000000 ) ) ;
#49 = APPROVAL_DATE_TIME ( #108, #241 ) ;
#50 = APPROVAL_PERSON_ORGANIZATION ( #154, #103, #251 ) ;
#51 = PERSON_AND_ORGANIZATION ( #202, #2 ) ;
#52 = PERSON_AND_ORGANIZATION_ROLE ( 'creator' ) ;
#53 = EDGE_CURVE ( 'NONE', #228, #211, #172, .T. ) ;
#54 = ORIENTED_EDGE ( 'NONE', *, *, #146, .F. ) ;
#55 =( NAMED_UNIT ( * ) SI_UNIT ( $, .STERADIAN. ) SOLID_ANGLE_UNIT ( ) );
#56 = VERTEX_POINT ( 'NONE', #181 ) ;
#57 = CALENDAR_DATE ( 2023, 13, 2 ) ;
#58 = ORIENTED_EDGE ( 'NONE', *, *, #53, .F. ) ;
#59 = CALENDAR_DATE ( 2023, 13, 2 ) ;
#60 = ORIENTED_EDGE ( 'NONE', *, *, #210, .F. ) ;
#61 = APPLICATION_CONTEXT ( 'configuration controlled 3d designs of mechanical parts and assemblies' ) ;
#62 = CC_DESIGN_PERSON_AND_ORGANIZATION_ASSIGNMENT ( #170, #75, ( #243 ) ) ;
#63 = CARTESIAN_POINT ( 'NONE',  ( 0.000000000000000000, 0.000000000000000000, 3.000000000000000000 ) ) ;
#64 = EDGE_LOOP ( 'NONE', ( #98, #104 ) ) ;
#65 = AXIS2_PLACEMENT_3D ( 'NONE', #70, #147, #31 ) ;
#66 = VECTOR ( 'NONE', #219, 1000.000000000000000 ) ;
#67 = EDGE_LOOP ( 'NONE', ( #54, #229, #42, #114 ) ) ;
#68 = PRODUCT_DEFINITION ( 'NEZNÁMÝ', '', #46, #41 ) ;
#69 = CC_DESIGN_APPROVAL ( #136, ( #46 ) ) ;
#70 = CARTESIAN_POINT ( 'NONE',  ( 0.000000000000000000, 0.000000000000000000, 0.000000000000000000 ) ) ;
#71 = AXIS2_PLACEMENT_3D ( 'NONE', #23, #27, #217 ) ;
#72 = APPROVAL_DATE_TIME ( #204, #136 ) ;
#73 = DIRECTION ( 'NONE',  ( 0.000000000000000000, 0.000000000000000000, 1.000000000000000000 ) ) ;
#74 = DIRECTION ( 'NONE',  ( 0.000000000000000000, 0.000000000000000000, 1.000000000000000000 ) ) ;
#75 = PERSON_AND_ORGANIZATION_ROLE ( 'classification_officer' ) ;
#76 = ADVANCED_FACE ( 'NONE', ( #105 ), #7, .F. ) ;
#77 = CARTESIAN_POINT ( 'NONE',  ( 0.000000000000000000, 0.000000000000000000, 3.000000000000000000 ) ) ;
#78 = DIRECTION ( 'NONE',  ( 1.000000000000000000, 0.000000000000000000, 0.000000000000000000 ) ) ;
#79 = COORDINATED_UNIVERSAL_TIME_OFFSET ( 1, 0, .AHEAD. ) ;
#80 = VERTEX_POINT ( 'NONE', #142 ) ;
#81 = SHAPE_DEFINITION_REPRESENTATION ( #5, #25 ) ;
#82 = VECTOR ( 'NONE', #138, 1000.000000000000000 ) ;
#83 = ADVANCED_FACE ( 'NONE', ( #201 ), #28, .T. ) ;
#84 = APPROVAL_PERSON_ORGANIZATION ( #51, #136, #246 ) ;
#85 = ORIENTED_EDGE ( 'NONE', *, *, #36, .F. ) ;
#86 = LOCAL_TIME ( 16, 7, 4.000000000000000000, #221 ) ;
#87 = DIRECTION ( 'NONE',  ( 1.000000000000000000, 0.000000000000000000, -0.000000000000000000 ) ) ;
#88 = CARTESIAN_POINT ( 'NONE',  ( -4.000000000000000000, 0.000000000000000000, 3.000000000000000000 ) ) ;
#89 = APPROVAL_STATUS ( 'not_yet_approved' ) ;
#90 = CYLINDRICAL_SURFACE ( 'NONE', #141, 2.000000000000000000 ) ;
#91 = CARTESIAN_POINT ( 'NONE',  ( 4.000000000000000000, 4.898587196589412829E-16, 3.000000000000000000 ) ) ;
#92 = ADVANCED_FACE ( 'NONE', ( #163 ), #101, .T. ) ;
#93 = DIRECTION ( 'NONE',  ( 1.000000000000000000, 0.000000000000000000, 0.000000000000000000 ) ) ;
#94 = CLOSED_SHELL ( 'NONE', ( #44, #24, #92, #225, #76, #159, #83 ) ) ;
#95 = PERSON_AND_ORGANIZATION ( #202, #2 ) ;
#96 = VERTEX_POINT ( 'NONE', #88 ) ;
#97 = VECTOR ( 'NONE', #33, 1000.000000000000000 ) ;
#98 = ORIENTED_EDGE ( 'NONE', *, *, #156, .F. ) ;
#99 = AXIS2_PLACEMENT_3D ( 'NONE', #209, #26, #149 ) ;
#100 = ORIENTED_EDGE ( 'NONE', *, *, #252, .T. ) ;
#101 = CYLINDRICAL_SURFACE ( 'NONE', #125, 4.000000000000000000 ) ;
#102 = CARTESIAN_POINT ( 'NONE',  ( 0.000000000000000000, 0.000000000000000000, 500.0000000000000000 ) ) ;
#103 = APPROVAL ( #19, 'NEURÈENÝ' ) ;
#104 = ORIENTED_EDGE ( 'NONE', *, *, #252, .F. ) ;
#105 = FACE_OUTER_BOUND ( 'NONE', #118, .T. ) ;
#106 = PERSON_AND_ORGANIZATION ( #202, #2 ) ;
#107 = CARTESIAN_POINT ( 'NONE',  ( 0.000000000000000000, 0.000000000000000000, 500.0000000000000000 ) ) ;
#108 = DATE_AND_TIME ( #222, #86 ) ;
#109 = CARTESIAN_POINT ( 'NONE',  ( 4.000000000000000000, 4.898587196589412829E-16, 0.000000000000000000 ) ) ;
#110 = SECURITY_CLASSIFICATION_LEVEL ( 'unclassified' ) ;
#111 = FACE_OUTER_BOUND ( 'NONE', #169, .T. ) ;
#112 = APPLICATION_PROTOCOL_DEFINITION ( 'international standard', 'config_control_design', 1994, #47 ) ;
#113 = ORIENTED_EDGE ( 'NONE', *, *, #210, .T. ) ;
#114 = ORIENTED_EDGE ( 'NONE', *, *, #3, .F. ) ;
#115 = DATE_AND_TIME ( #59, #199 ) ;
#116 = CC_DESIGN_APPROVAL ( #241, ( #68 ) ) ;
#117 = CC_DESIGN_PERSON_AND_ORGANIZATION_ASSIGNMENT ( #131, #145, ( #68 ) ) ;
#118 = EDGE_LOOP ( 'NONE', ( #21, #58 ) ) ;
#119 = AXIS2_PLACEMENT_3D ( 'NONE', #63, #214, #162 ) ;
#120 =( NAMED_UNIT ( * ) PLANE_ANGLE_UNIT ( ) SI_UNIT ( $, .RADIAN. ) );
#121 = ORIENTED_EDGE ( 'NONE', *, *, #182, .T. ) ;
#122 = CIRCLE ( 'NONE', #216, 2.000000000000000000 ) ;
#123 = CARTESIAN_POINT ( 'NONE',  ( 0.000000000000000000, 0.000000000000000000, 500.0000000000000000 ) ) ;
#124 = DIRECTION ( 'NONE',  ( 0.000000000000000000, 0.000000000000000000, 1.000000000000000000 ) ) ;
#125 = AXIS2_PLACEMENT_3D ( 'NONE', #177, #213, #45 ) ;
#126 = LOCAL_TIME ( 16, 7, 4.000000000000000000, #190 ) ;
#127 = DIRECTION ( 'NONE',  ( 0.000000000000000000, 0.000000000000000000, 1.000000000000000000 ) ) ;
#128 = CALENDAR_DATE ( 2023, 13, 2 ) ;
#129 = AXIS2_PLACEMENT_3D ( 'NONE', #40, #140, #233 ) ;
#130 = VECTOR ( 'NONE', #18, 1000.000000000000000 ) ;
#131 = PERSON_AND_ORGANIZATION ( #202, #2 ) ;
#132 = PERSON_AND_ORGANIZATION_ROLE ( 'design_supplier' ) ;
#133 = ORIENTED_EDGE ( 'NONE', *, *, #223, .F. ) ;
#134 = ORIENTED_EDGE ( 'NONE', *, *, #186, .F. ) ;
#135 = VERTEX_POINT ( 'NONE', #189 ) ;
#136 = APPROVAL ( #152, 'NEURÈENÝ' ) ;
#137 = DATE_TIME_ROLE ( 'classification_date' ) ;
#138 = DIRECTION ( 'NONE',  ( -0.000000000000000000, -0.000000000000000000, -1.000000000000000000 ) ) ;
#139 = FACE_OUTER_BOUND ( 'NONE', #35, .T. ) ;
#140 = DIRECTION ( 'NONE',  ( -0.000000000000000000, -0.000000000000000000, -1.000000000000000000 ) ) ;
#141 = AXIS2_PLACEMENT_3D ( 'NONE', #164, #187, #29 ) ;
#142 = CARTESIAN_POINT ( 'NONE',  ( -2.000000000000000000, 0.000000000000000000, 3.000000000000000000 ) ) ;
#143 = CC_DESIGN_DATE_AND_TIME_ASSIGNMENT ( #15, #205, ( #68 ) ) ;
#144 = LOCAL_TIME ( 16, 7, 4.000000000000000000, #206 ) ;
#145 = PERSON_AND_ORGANIZATION_ROLE ( 'creator' ) ;
#146 = EDGE_CURVE ( 'NONE', #153, #96, #245, .T. ) ;
#147 = DIRECTION ( 'NONE',  ( 0.000000000000000000, 0.000000000000000000, 1.000000000000000000 ) ) ;
#148 = AXIS2_PLACEMENT_3D ( 'NONE', #102, #183, #87 ) ;
#149 = DIRECTION ( 'NONE',  ( 1.000000000000000000, 0.000000000000000000, 0.000000000000000000 ) ) ;
#150 =( GEOMETRIC_REPRESENTATION_CONTEXT ( 3 ) GLOBAL_UNCERTAINTY_ASSIGNED_CONTEXT ( ( #220 ) ) GLOBAL_UNIT_ASSIGNED_CONTEXT ( ( #155, #120, #55 ) ) REPRESENTATION_CONTEXT ( 'NONE', 'WORKASPACE' ) );
#151 = PERSON_AND_ORGANIZATION ( #202, #2 ) ;
#152 = APPROVAL_STATUS ( 'not_yet_approved' ) ;
#153 = VERTEX_POINT ( 'NONE', #91 ) ;
#154 = PERSON_AND_ORGANIZATION ( #202, #2 ) ;
#155 =( LENGTH_UNIT ( ) NAMED_UNIT ( * ) SI_UNIT ( .MILLI., .METRE. ) );
#156 = EDGE_CURVE ( 'NONE', #80, #194, #158, .T. ) ;
#157 = ORIENTED_EDGE ( 'NONE', *, *, #234, .T. ) ;
#158 = CIRCLE ( 'NONE', #178, 2.000000000000000000 ) ;
#159 = ADVANCED_FACE ( 'NONE', ( #167 ), #90, .T. ) ;
#160 = CARTESIAN_POINT ( 'NONE',  ( -4.000000000000000000, 0.000000000000000000, 0.000000000000000000 ) ) ;
#161 = MANIFOLD_SOLID_BREP ( 'Pøidat vysunutím3', #94 ) ;
#162 = DIRECTION ( 'NONE',  ( 1.000000000000000000, 0.000000000000000000, 0.000000000000000000 ) ) ;
#163 = FACE_OUTER_BOUND ( 'NONE', #193, .T. ) ;
#164 = CARTESIAN_POINT ( 'NONE',  ( 0.000000000000000000, 0.000000000000000000, 500.0000000000000000 ) ) ;
#165 = PRODUCT_RELATED_PRODUCT_CATEGORY ( 'detail', '', ( #218 ) ) ;
#166 = CARTESIAN_POINT ( 'NONE',  ( 4.000000000000000000, 4.898587196589412829E-16, 3.000000000000000000 ) ) ;
#167 = FACE_OUTER_BOUND ( 'NONE', #250, .T. ) ;
#168 = LINE ( 'NONE', #232, #130 ) ;
#169 = EDGE_LOOP ( 'NONE', ( #38, #226 ) ) ;
#170 = PERSON_AND_ORGANIZATION ( #202, #2 ) ;
#171 = PLANE ( 'NONE',  #195 ) ;
#172 = CIRCLE ( 'NONE', #71, 4.000000000000000000 ) ;
#173 = ORIENTED_EDGE ( 'NONE', *, *, #3, .T. ) ;
#174 = CIRCLE ( 'NONE', #65, 4.000000000000000000 ) ;
#175 = EDGE_LOOP ( 'NONE', ( #113, #121 ) ) ;
#176 = ORIENTED_EDGE ( 'NONE', *, *, #223, .T. ) ;
#177 = CARTESIAN_POINT ( 'NONE',  ( 0.000000000000000000, 0.000000000000000000, 3.000000000000000000 ) ) ;
#178 = AXIS2_PLACEMENT_3D ( 'NONE', #185, #242, #12 ) ;
#179 = DIRECTION ( 'NONE',  ( 0.000000000000000000, 0.000000000000000000, 1.000000000000000000 ) ) ;
#180 = LINE ( 'NONE', #235, #82 ) ;
#181 = CARTESIAN_POINT ( 'NONE',  ( 2.000000000000000000, 2.449293598294705921E-16, 500.0000000000000000 ) ) ;
#182 = EDGE_CURVE ( 'NONE', #56, #135, #240, .T. ) ;
#183 = DIRECTION ( 'NONE',  ( 0.000000000000000000, 0.000000000000000000, 1.000000000000000000 ) ) ;
#184 = APPROVAL_PERSON_ORGANIZATION ( #106, #241, #238 ) ;
#185 = CARTESIAN_POINT ( 'NONE',  ( 0.000000000000000000, 0.000000000000000000, 3.000000000000000000 ) ) ;
#186 = EDGE_CURVE ( 'NONE', #153, #228, #203, .T. ) ;
#187 = DIRECTION ( 'NONE',  ( -0.000000000000000000, -0.000000000000000000, -1.000000000000000000 ) ) ;
#188 = CALENDAR_DATE ( 2023, 13, 2 ) ;
#189 = CARTESIAN_POINT ( 'NONE',  ( -2.000000000000000000, 0.000000000000000000, 500.0000000000000000 ) ) ;
#190 = COORDINATED_UNIVERSAL_TIME_OFFSET ( 1, 0, .AHEAD. ) ;
#191 = MECHANICAL_CONTEXT ( 'NONE', #47, 'mechanical' ) ;
#192 = CARTESIAN_POINT ( 'NONE',  ( 0.000000000000000000, 0.000000000000000000, 3.000000000000000000 ) ) ;
#193 = EDGE_LOOP ( 'NONE', ( #134, #85, #173, #248 ) ) ;
#194 = VERTEX_POINT ( 'NONE', #244 ) ;
#195 = AXIS2_PLACEMENT_3D ( 'NONE', #192, #179, #4 ) ;
#196 = APPROVAL_DATE_TIME ( #115, #103 ) ;
#197 = CC_DESIGN_DATE_AND_TIME_ASSIGNMENT ( #37, #137, ( #243 ) ) ;
#198 = AXIS2_PLACEMENT_3D ( 'NONE', #48, #127, #93 ) ;
#199 = LOCAL_TIME ( 16, 7, 4.000000000000000000, #79 ) ;
#200 = DIRECTION ( 'NONE',  ( -1.000000000000000000, 0.000000000000000000, 0.000000000000000000 ) ) ;
#201 = FACE_OUTER_BOUND ( 'NONE', #175, .T. ) ;
#202 = PERSON ( 'NEURÈENÝ', 'NEURÈENÝ', 'NEURÈENÝ', ('NEURÈENÝ'), ('NEURÈENÝ'), ('NEURÈENÝ') ) ;
#203 = LINE ( 'NONE', #166, #66 ) ;
#204 = DATE_AND_TIME ( #188, #144 ) ;
#205 = DATE_TIME_ROLE ( 'creation_date' ) ;
#206 = COORDINATED_UNIVERSAL_TIME_OFFSET ( 1, 0, .AHEAD. ) ;
#207 = EDGE_CURVE ( 'NONE', #211, #228, #174, .T. ) ;
#208 = PERSON_AND_ORGANIZATION_ROLE ( 'design_owner' ) ;
#209 = CARTESIAN_POINT ( 'NONE',  ( 0.000000000000000000, 0.000000000000000000, 0.000000000000000000 ) ) ;
#210 = EDGE_CURVE ( 'NONE', #135, #56, #122, .T. ) ;
#211 = VERTEX_POINT ( 'NONE', #160 ) ;
#212 = CC_DESIGN_PERSON_AND_ORGANIZATION_ASSIGNMENT ( #30, #52, ( #46 ) ) ;
#213 = DIRECTION ( 'NONE',  ( -0.000000000000000000, -0.000000000000000000, -1.000000000000000000 ) ) ;
#214 = DIRECTION ( 'NONE',  ( 0.000000000000000000, 0.000000000000000000, 1.000000000000000000 ) ) ;
#215 = CC_DESIGN_PERSON_AND_ORGANIZATION_ASSIGNMENT ( #151, #132, ( #46 ) ) ;
#216 = AXIS2_PLACEMENT_3D ( 'NONE', #107, #74, #78 ) ;
#217 = DIRECTION ( 'NONE',  ( 1.000000000000000000, 0.000000000000000000, 0.000000000000000000 ) ) ;
#218 = PRODUCT ( '51d1', '51d1', '', ( #191 ) ) ;
#219 = DIRECTION ( 'NONE',  ( -0.000000000000000000, -0.000000000000000000, -1.000000000000000000 ) ) ;
#220 = UNCERTAINTY_MEASURE_WITH_UNIT (LENGTH_MEASURE( 1.000000000000000082E-05 ), #155, 'distance_accuracy_value', 'NONE');
#221 = COORDINATED_UNIVERSAL_TIME_OFFSET ( 1, 0, .AHEAD. ) ;
#222 = CALENDAR_DATE ( 2023, 13, 2 ) ;
#223 = EDGE_CURVE ( 'NONE', #135, #80, #168, .T. ) ;
#224 = LINE ( 'NONE', #247, #97 ) ;
#225 = ADVANCED_FACE ( 'NONE', ( #34, #111 ), #171, .T. ) ;
#226 = ORIENTED_EDGE ( 'NONE', *, *, #146, .T. ) ;
#227 = DIRECTION ( 'NONE',  ( 1.000000000000000000, 0.000000000000000000, 0.000000000000000000 ) ) ;
#228 = VERTEX_POINT ( 'NONE', #109 ) ;
#229 = ORIENTED_EDGE ( 'NONE', *, *, #186, .T. ) ;
#230 = CYLINDRICAL_SURFACE ( 'NONE', #14, 2.000000000000000000 ) ;
#231 = CIRCLE ( 'NONE', #8, 2.000000000000000000 ) ;
#232 = CARTESIAN_POINT ( 'NONE',  ( -2.000000000000000000, 0.000000000000000000, 500.0000000000000000 ) ) ;
#233 = DIRECTION ( 'NONE',  ( -1.000000000000000000, 0.000000000000000000, 0.000000000000000000 ) ) ;
#234 = EDGE_CURVE ( 'NONE', #56, #194, #224, .T. ) ;
#235 = CARTESIAN_POINT ( 'NONE',  ( -4.000000000000000000, 0.000000000000000000, 3.000000000000000000 ) ) ;
#236 = CYLINDRICAL_SURFACE ( 'NONE', #129, 4.000000000000000000 ) ;
#237 = DIRECTION ( 'NONE',  ( 1.000000000000000000, 0.000000000000000000, -0.000000000000000000 ) ) ;
#238 = APPROVAL_ROLE ( '' ) ;
#239 = DIRECTION ( 'NONE',  ( 1.000000000000000000, 0.000000000000000000, 0.000000000000000000 ) ) ;
#240 = CIRCLE ( 'NONE', #198, 2.000000000000000000 ) ;
#241 = APPROVAL ( #89, 'NEURÈENÝ' ) ;
#242 = DIRECTION ( 'NONE',  ( 0.000000000000000000, 0.000000000000000000, 1.000000000000000000 ) ) ;
#243 = SECURITY_CLASSIFICATION ( '', '', #110 ) ;
#244 = CARTESIAN_POINT ( 'NONE',  ( 2.000000000000000000, 2.449293598294705921E-16, 3.000000000000000000 ) ) ;
#245 = CIRCLE ( 'NONE', #9, 4.000000000000000000 ) ;
#246 = APPROVAL_ROLE ( '' ) ;
#247 = CARTESIAN_POINT ( 'NONE',  ( 2.000000000000000000, 2.449293598294705921E-16, 500.0000000000000000 ) ) ;
#248 = ORIENTED_EDGE ( 'NONE', *, *, #207, .T. ) ;
#249 = CIRCLE ( 'NONE', #119, 4.000000000000000000 ) ;
#250 = EDGE_LOOP ( 'NONE', ( #22, #60, #176, #253 ) ) ;
#251 = APPROVAL_ROLE ( '' ) ;
#252 = EDGE_CURVE ( 'NONE', #194, #80, #231, .T. ) ;
#253 = ORIENTED_EDGE ( 'NONE', *, *, #156, .T. ) ;
#254 = DIRECTION ( 'NONE',  ( -0.000000000000000000, -0.000000000000000000, -1.000000000000000000 ) ) ;
#255 = COORDINATED_UNIVERSAL_TIME_OFFSET ( 1, 0, .AHEAD. ) ;
ENDSEC;
END-ISO-10303-21;
