ISO-10303-21;
HEADER;
FILE_DESCRIPTION (( 'STEP AP203' ),
    '1' );
FILE_NAME ('3cff.STEP',
    '2023-01-31T14:46:44',
    ( '' ),
    ( '' ),
    'SwSTEP 2.0',
    'SolidWorks 2019',
    '' );
FILE_SCHEMA (( 'CONFIG_CONTROL_DESIGN' ));
ENDSEC;

DATA;
#1 = CALENDAR_DATE ( 2023, 31, 1 ) ;
#2 = ORIENTED_EDGE ( 'NONE', *, *, #114, .T. ) ;
#3 = CC_DESIGN_PERSON_AND_ORGANIZATION_ASSIGNMENT ( #182, #198, ( #129 ) ) ;
#4 = APPLICATION_PROTOCOL_DEFINITION ( 'international standard', 'config_control_design', 1994, #56 ) ;
#5 = AXIS2_PLACEMENT_3D ( 'NONE', #124, #193, #213 ) ;
#6 = VERTEX_POINT ( 'NONE', #8 ) ;
#7 = CC_DESIGN_APPROVAL ( #221, ( #129 ) ) ;
#8 = CARTESIAN_POINT ( 'NONE',  ( -0.5000000000000000000, 0.000000000000000000, 100.0000000000000000 ) ) ;
#9 = SHAPE_DEFINITION_REPRESENTATION ( #13, #231 ) ;
#10 = ORIENTED_EDGE ( 'NONE', *, *, #246, .T. ) ;
#11 = APPROVAL_ROLE ( '' ) ;
#12 = ORIENTED_EDGE ( 'NONE', *, *, #16, .F. ) ;
#13 = PRODUCT_DEFINITION_SHAPE ( 'NONE', 'NONE',  #204 ) ;
#14 = DIRECTION ( 'NONE',  ( 0.000000000000000000, 0.000000000000000000, 1.000000000000000000 ) ) ;
#15 = DIRECTION ( 'NONE',  ( -0.000000000000000000, -0.000000000000000000, -1.000000000000000000 ) ) ;
#16 = EDGE_CURVE ( 'NONE', #242, #67, #100, .T. ) ;
#17 = DIRECTION ( 'NONE',  ( 0.000000000000000000, 0.000000000000000000, 1.000000000000000000 ) ) ;
#18 = CIRCLE ( 'NONE', #150, 1.250000000000000000 ) ;
#19 = CARTESIAN_POINT ( 'NONE',  ( 0.000000000000000000, 0.000000000000000000, 100.0000000000000000 ) ) ;
#20 = CC_DESIGN_PERSON_AND_ORGANIZATION_ASSIGNMENT ( #243, #241, ( #178 ) ) ;
#21 = DIRECTION ( 'NONE',  ( 1.000000000000000000, 0.000000000000000000, 0.000000000000000000 ) ) ;
#22 = CIRCLE ( 'NONE', #218, 0.5000000000000000000 ) ;
#23 = APPLICATION_PROTOCOL_DEFINITION ( 'international standard', 'config_control_design', 1994, #46 ) ;
#24 =( NAMED_UNIT ( * ) PLANE_ANGLE_UNIT ( ) SI_UNIT ( $, .RADIAN. ) );
#25 = ORIENTED_EDGE ( 'NONE', *, *, #93, .T. ) ;
#26 = APPROVAL_DATE_TIME ( #116, #60 ) ;
#27 = PERSON_AND_ORGANIZATION_ROLE ( 'design_owner' ) ;
#28 = ORIENTED_EDGE ( 'NONE', *, *, #121, .T. ) ;
#29 = CALENDAR_DATE ( 2023, 31, 1 ) ;
#30 = DIRECTION ( 'NONE',  ( 0.000000000000000000, 0.000000000000000000, 1.000000000000000000 ) ) ;
#31 = CARTESIAN_POINT ( 'NONE',  ( 0.000000000000000000, 0.000000000000000000, 1.199999999999999956 ) ) ;
#32 = AXIS2_PLACEMENT_3D ( 'NONE', #207, #163, #249 ) ;
#33 = LINE ( 'NONE', #106, #160 ) ;
#34 = ADVANCED_FACE ( 'NONE', ( #239 ), #95, .T. ) ;
#35 = DIRECTION ( 'NONE',  ( -1.000000000000000000, 0.000000000000000000, 0.000000000000000000 ) ) ;
#36 = PLANE ( 'NONE',  #32 ) ;
#37 = APPROVAL_PERSON_ORGANIZATION ( #90, #74, #177 ) ;
#38 = ADVANCED_FACE ( 'NONE', ( #211 ), #36, .F. ) ;
#39 = DIRECTION ( 'NONE',  ( 0.000000000000000000, 0.000000000000000000, 1.000000000000000000 ) ) ;
#40 = DIRECTION ( 'NONE',  ( -0.000000000000000000, -0.000000000000000000, -1.000000000000000000 ) ) ;
#41 = LOCAL_TIME ( 15, 46, 44.00000000000000000, #237 ) ;
#42 = DIRECTION ( 'NONE',  ( 0.000000000000000000, 0.000000000000000000, 1.000000000000000000 ) ) ;
#43 = UNCERTAINTY_MEASURE_WITH_UNIT (LENGTH_MEASURE( 1.000000000000000082E-05 ), #110, 'distance_accuracy_value', 'NONE');
#44 = EDGE_CURVE ( 'NONE', #6, #219, #233, .T. ) ;
#45 = CARTESIAN_POINT ( 'NONE',  ( 0.000000000000000000, 0.000000000000000000, 0.000000000000000000 ) ) ;
#46 = APPLICATION_CONTEXT ( 'configuration controlled 3d designs of mechanical parts and assemblies' ) ;
#47 = PRODUCT_RELATED_PRODUCT_CATEGORY ( 'detail', '', ( #225 ) ) ;
#48 = APPROVAL_STATUS ( 'not_yet_approved' ) ;
#49 = COORDINATED_UNIVERSAL_TIME_OFFSET ( 1, 0, .AHEAD. ) ;
#50 = PERSON_AND_ORGANIZATION ( #212, #255 ) ;
#51 = CC_DESIGN_DATE_AND_TIME_ASSIGNMENT ( #88, #176, ( #204 ) ) ;
#52 = EDGE_LOOP ( 'NONE', ( #12, #10, #180, #122 ) ) ;
#53 = CARTESIAN_POINT ( 'NONE',  ( -1.250000000000000000, 0.000000000000000000, 1.199999999999999956 ) ) ;
#54 = CARTESIAN_POINT ( 'NONE',  ( 0.000000000000000000, 0.000000000000000000, 1.199999999999999956 ) ) ;
#55 = DIRECTION ( 'NONE',  ( 1.000000000000000000, 0.000000000000000000, -0.000000000000000000 ) ) ;
#56 = APPLICATION_CONTEXT ( 'configuration controlled 3d designs of mechanical parts and assemblies' ) ;
#57 = DIRECTION ( 'NONE',  ( 1.000000000000000000, 0.000000000000000000, -0.000000000000000000 ) ) ;
#58 = VECTOR ( 'NONE', #40, 1000.000000000000000 ) ;
#59 = FACE_OUTER_BOUND ( 'NONE', #62, .T. ) ;
#60 = APPROVAL ( #157, 'NEURÈENÝ' ) ;
#61 = LOCAL_TIME ( 15, 46, 44.00000000000000000, #49 ) ;
#62 = EDGE_LOOP ( 'NONE', ( #222, #139 ) ) ;
#63 = COORDINATED_UNIVERSAL_TIME_OFFSET ( 1, 0, .AHEAD. ) ;
#64 = ORIENTED_EDGE ( 'NONE', *, *, #44, .F. ) ;
#65 = DATE_AND_TIME ( #199, #196 ) ;
#66 = CIRCLE ( 'NONE', #153, 0.5000000000000000000 ) ;
#67 = VERTEX_POINT ( 'NONE', #53 ) ;
#68 = EDGE_CURVE ( 'NONE', #6, #195, #252, .T. ) ;
#69 = DIRECTION ( 'NONE',  ( 1.000000000000000000, 0.000000000000000000, 0.000000000000000000 ) ) ;
#70 = DIRECTION ( 'NONE',  ( 0.000000000000000000, 0.000000000000000000, 1.000000000000000000 ) ) ;
#71 = AXIS2_PLACEMENT_3D ( 'NONE', #72, #209, #254 ) ;
#72 = CARTESIAN_POINT ( 'NONE',  ( 0.000000000000000000, 0.000000000000000000, 100.0000000000000000 ) ) ;
#73 = PLANE ( 'NONE',  #190 ) ;
#74 = APPROVAL ( #48, 'NEURÈENÝ' ) ;
#75 = DIRECTION ( 'NONE',  ( 0.000000000000000000, 0.000000000000000000, 1.000000000000000000 ) ) ;
#76 = AXIS2_PLACEMENT_3D ( 'NONE', #131, #75, #69 ) ;
#77 = EDGE_LOOP ( 'NONE', ( #141, #25 ) ) ;
#78 = MECHANICAL_CONTEXT ( 'NONE', #46, 'mechanical' ) ;
#79 = ORIENTED_EDGE ( 'NONE', *, *, #175, .F. ) ;
#80 = LOCAL_TIME ( 15, 46, 44.00000000000000000, #202 ) ;
#81 = DIRECTION ( 'NONE',  ( 1.000000000000000000, 0.000000000000000000, 0.000000000000000000 ) ) ;
#82 = EDGE_CURVE ( 'NONE', #67, #242, #186, .T. ) ;
#83 = PERSON_AND_ORGANIZATION ( #212, #255 ) ;
#84 = DIRECTION ( 'NONE',  ( 1.000000000000000000, 0.000000000000000000, 0.000000000000000000 ) ) ;
#85 = AXIS2_PLACEMENT_3D ( 'NONE', #107, #70, #165 ) ;
#86 = PERSON_AND_ORGANIZATION_ROLE ( 'creator' ) ;
#87 = VERTEX_POINT ( 'NONE', #162 ) ;
#88 = DATE_AND_TIME ( #155, #61 ) ;
#89 = EDGE_LOOP ( 'NONE', ( #170, #79 ) ) ;
#90 = PERSON_AND_ORGANIZATION ( #212, #255 ) ;
#91 = APPROVAL_PERSON_ORGANIZATION ( #50, #221, #11 ) ;
#92 = ORIENTED_EDGE ( 'NONE', *, *, #82, .F. ) ;
#93 = EDGE_CURVE ( 'NONE', #219, #6, #206, .T. ) ;
#94 = CYLINDRICAL_SURFACE ( 'NONE', #5, 0.5000000000000000000 ) ;
#95 = CYLINDRICAL_SURFACE ( 'NONE', #149, 1.250000000000000000 ) ;
#96 = DIRECTION ( 'NONE',  ( -1.000000000000000000, 0.000000000000000000, 0.000000000000000000 ) ) ;
#97 = CC_DESIGN_PERSON_AND_ORGANIZATION_ASSIGNMENT ( #83, #224, ( #178 ) ) ;
#98 = CARTESIAN_POINT ( 'NONE',  ( 0.5000000000000000000, 6.123233995736766036E-17, 1.199999999999999956 ) ) ;
#99 = CYLINDRICAL_SURFACE ( 'NONE', #118, 1.250000000000000000 ) ;
#100 = CIRCLE ( 'NONE', #238, 1.250000000000000000 ) ;
#101 = CC_DESIGN_APPROVAL ( #60, ( #178 ) ) ;
#102 = PERSON_AND_ORGANIZATION ( #212, #255 ) ;
#103 = ORIENTED_EDGE ( 'NONE', *, *, #246, .F. ) ;
#104 = DATE_AND_TIME ( #29, #80 ) ;
#105 = CC_DESIGN_PERSON_AND_ORGANIZATION_ASSIGNMENT ( #102, #86, ( #204 ) ) ;
#106 = CARTESIAN_POINT ( 'NONE',  ( -1.250000000000000000, 0.000000000000000000, 1.199999999999999956 ) ) ;
#107 = CARTESIAN_POINT ( 'NONE',  ( 0.000000000000000000, 0.000000000000000000, 100.0000000000000000 ) ) ;
#108 = CLOSED_SHELL ( 'NONE', ( #192, #34, #147, #140, #38, #154, #166 ) ) ;
#109 = CARTESIAN_POINT ( 'NONE',  ( 0.000000000000000000, 0.000000000000000000, 0.000000000000000000 ) ) ;
#110 =( LENGTH_UNIT ( ) NAMED_UNIT ( * ) SI_UNIT ( .MILLI., .METRE. ) );
#111 = CIRCLE ( 'NONE', #250, 1.250000000000000000 ) ;
#112 = CARTESIAN_POINT ( 'NONE',  ( 1.250000000000000000, 1.530808498934191571E-16, 1.199999999999999956 ) ) ;
#113 = ORIENTED_EDGE ( 'NONE', *, *, #251, .T. ) ;
#114 = EDGE_CURVE ( 'NONE', #67, #191, #33, .T. ) ;
#115 = CARTESIAN_POINT ( 'NONE',  ( 0.5000000000000000000, 6.123233995736766036E-17, 100.0000000000000000 ) ) ;
#116 = DATE_AND_TIME ( #1, #210 ) ;
#117 = DATE_AND_TIME ( #220, #41 ) ;
#118 = AXIS2_PLACEMENT_3D ( 'NONE', #234, #148, #96 ) ;
#119 = APPROVAL_STATUS ( 'not_yet_approved' ) ;
#120 = ORIENTED_EDGE ( 'NONE', *, *, #68, .T. ) ;
#121 = EDGE_CURVE ( 'NONE', #195, #156, #22, .T. ) ;
#122 = ORIENTED_EDGE ( 'NONE', *, *, #114, .F. ) ;
#123 = ORIENTED_EDGE ( 'NONE', *, *, #175, .T. ) ;
#124 = CARTESIAN_POINT ( 'NONE',  ( 0.000000000000000000, 0.000000000000000000, 100.0000000000000000 ) ) ;
#125 = DIRECTION ( 'NONE',  ( 0.000000000000000000, 0.000000000000000000, 1.000000000000000000 ) ) ;
#126 = DESIGN_CONTEXT ( 'detailed design', #56, 'design' ) ;
#127 = CYLINDRICAL_SURFACE ( 'NONE', #215, 0.5000000000000000000 ) ;
#128 = CARTESIAN_POINT ( 'NONE',  ( 0.000000000000000000, 0.000000000000000000, 100.0000000000000000 ) ) ;
#129 = SECURITY_CLASSIFICATION ( '', '', #136 ) ;
#130 = CC_DESIGN_DATE_AND_TIME_ASSIGNMENT ( #65, #137, ( #129 ) ) ;
#131 = CARTESIAN_POINT ( 'NONE',  ( 0.000000000000000000, 0.000000000000000000, 1.199999999999999956 ) ) ;
#132 = CARTESIAN_POINT ( 'NONE',  ( 0.5000000000000000000, 6.123233995736766036E-17, 100.0000000000000000 ) ) ;
#133 = CARTESIAN_POINT ( 'NONE',  ( 0.000000000000000000, 0.000000000000000000, 0.000000000000000000 ) ) ;
#134 = AXIS2_PLACEMENT_3D ( 'NONE', #133, #42, #81 ) ;
#135 = PERSON_AND_ORGANIZATION ( #212, #255 ) ;
#136 = SECURITY_CLASSIFICATION_LEVEL ( 'unclassified' ) ;
#137 = DATE_TIME_ROLE ( 'classification_date' ) ;
#138 = APPROVAL_ROLE ( '' ) ;
#139 = ORIENTED_EDGE ( 'NONE', *, *, #16, .T. ) ;
#140 = ADVANCED_FACE ( 'NONE', ( #208, #59 ), #184, .T. ) ;
#141 = ORIENTED_EDGE ( 'NONE', *, *, #44, .T. ) ;
#142 = DIRECTION ( 'NONE',  ( 1.000000000000000000, 0.000000000000000000, 0.000000000000000000 ) ) ;
#143 =( GEOMETRIC_REPRESENTATION_CONTEXT ( 3 ) GLOBAL_UNCERTAINTY_ASSIGNED_CONTEXT ( ( #43 ) ) GLOBAL_UNIT_ASSIGNED_CONTEXT ( ( #110, #24, #172 ) ) REPRESENTATION_CONTEXT ( 'NONE', 'WORKASPACE' ) );
#144 = CARTESIAN_POINT ( 'NONE',  ( -0.5000000000000000000, 0.000000000000000000, 100.0000000000000000 ) ) ;
#145 = DIRECTION ( 'NONE',  ( -0.000000000000000000, -0.000000000000000000, -1.000000000000000000 ) ) ;
#146 = DIRECTION ( 'NONE',  ( 0.000000000000000000, 0.000000000000000000, 1.000000000000000000 ) ) ;
#147 = ADVANCED_FACE ( 'NONE', ( #230 ), #99, .T. ) ;
#148 = DIRECTION ( 'NONE',  ( -0.000000000000000000, -0.000000000000000000, -1.000000000000000000 ) ) ;
#149 = AXIS2_PLACEMENT_3D ( 'NONE', #167, #232, #35 ) ;
#150 = AXIS2_PLACEMENT_3D ( 'NONE', #45, #174, #21 ) ;
#151 = LINE ( 'NONE', #214, #58 ) ;
#152 = LINE ( 'NONE', #115, #173 ) ;
#153 = AXIS2_PLACEMENT_3D ( 'NONE', #31, #39, #142 ) ;
#154 = ADVANCED_FACE ( 'NONE', ( #187 ), #127, .T. ) ;
#155 = CALENDAR_DATE ( 2023, 31, 1 ) ;
#156 = VERTEX_POINT ( 'NONE', #98 ) ;
#157 = APPROVAL_STATUS ( 'not_yet_approved' ) ;
#158 = ORIENTED_EDGE ( 'NONE', *, *, #251, .F. ) ;
#159 = PERSON_AND_ORGANIZATION ( #212, #255 ) ;
#160 = VECTOR ( 'NONE', #229, 1000.000000000000000 ) ;
#161 = ORIENTED_EDGE ( 'NONE', *, *, #240, .T. ) ;
#162 = CARTESIAN_POINT ( 'NONE',  ( 1.250000000000000000, 1.530808498934191571E-16, 0.000000000000000000 ) ) ;
#163 = DIRECTION ( 'NONE',  ( 0.000000000000000000, 0.000000000000000000, 1.000000000000000000 ) ) ;
#164 = DIRECTION ( 'NONE',  ( 1.000000000000000000, 0.000000000000000000, 0.000000000000000000 ) ) ;
#165 = DIRECTION ( 'NONE',  ( 1.000000000000000000, 0.000000000000000000, 0.000000000000000000 ) ) ;
#166 = ADVANCED_FACE ( 'NONE', ( #253 ), #73, .T. ) ;
#167 = CARTESIAN_POINT ( 'NONE',  ( 0.000000000000000000, 0.000000000000000000, 1.199999999999999956 ) ) ;
#168 = DIRECTION ( 'NONE',  ( -0.000000000000000000, -0.000000000000000000, -1.000000000000000000 ) ) ;
#169 = CC_DESIGN_APPROVAL ( #74, ( #204 ) ) ;
#170 = ORIENTED_EDGE ( 'NONE', *, *, #121, .F. ) ;
#171 = CARTESIAN_POINT ( 'NONE',  ( -0.5000000000000000000, 0.000000000000000000, 1.199999999999999956 ) ) ;
#172 =( NAMED_UNIT ( * ) SI_UNIT ( $, .STERADIAN. ) SOLID_ANGLE_UNIT ( ) );
#173 = VECTOR ( 'NONE', #168, 1000.000000000000000 ) ;
#174 = DIRECTION ( 'NONE',  ( 0.000000000000000000, 0.000000000000000000, 1.000000000000000000 ) ) ;
#175 = EDGE_CURVE ( 'NONE', #156, #195, #66, .T. ) ;
#176 = DATE_TIME_ROLE ( 'creation_date' ) ;
#177 = APPROVAL_ROLE ( '' ) ;
#178 = PRODUCT_DEFINITION_FORMATION_WITH_SPECIFIED_SOURCE ( 'LIBOVOLNÝ', '', #225, .NOT_KNOWN. ) ;
#179 = CC_DESIGN_SECURITY_CLASSIFICATION ( #129, ( #178 ) ) ;
#180 = ORIENTED_EDGE ( 'NONE', *, *, #188, .T. ) ;
#181 = APPROVAL_DATE_TIME ( #104, #221 ) ;
#182 = PERSON_AND_ORGANIZATION ( #212, #255 ) ;
#183 = FACE_OUTER_BOUND ( 'NONE', #216, .T. ) ;
#184 = PLANE ( 'NONE',  #201 ) ;
#185 = CARTESIAN_POINT ( 'NONE',  ( 0.000000000000000000, 0.000000000000000000, 1.199999999999999956 ) ) ;
#186 = CIRCLE ( 'NONE', #76, 1.250000000000000000 ) ;
#187 = FACE_OUTER_BOUND ( 'NONE', #235, .T. ) ;
#188 = EDGE_CURVE ( 'NONE', #87, #191, #111, .T. ) ;
#189 = DIRECTION ( 'NONE',  ( 1.000000000000000000, 0.000000000000000000, 0.000000000000000000 ) ) ;
#190 = AXIS2_PLACEMENT_3D ( 'NONE', #128, #146, #57 ) ;
#191 = VERTEX_POINT ( 'NONE', #228 ) ;
#192 = ADVANCED_FACE ( 'NONE', ( #183 ), #94, .T. ) ;
#193 = DIRECTION ( 'NONE',  ( -0.000000000000000000, -0.000000000000000000, -1.000000000000000000 ) ) ;
#194 = CC_DESIGN_PERSON_AND_ORGANIZATION_ASSIGNMENT ( #135, #27, ( #225 ) ) ;
#195 = VERTEX_POINT ( 'NONE', #171 ) ;
#196 = LOCAL_TIME ( 15, 46, 44.00000000000000000, #63 ) ;
#197 = COORDINATED_UNIVERSAL_TIME_OFFSET ( 1, 0, .AHEAD. ) ;
#198 = PERSON_AND_ORGANIZATION_ROLE ( 'classification_officer' ) ;
#199 = CALENDAR_DATE ( 2023, 31, 1 ) ;
#200 = EDGE_LOOP ( 'NONE', ( #103, #92, #2, #161 ) ) ;
#201 = AXIS2_PLACEMENT_3D ( 'NONE', #185, #17, #55 ) ;
#202 = COORDINATED_UNIVERSAL_TIME_OFFSET ( 1, 0, .AHEAD. ) ;
#203 = CARTESIAN_POINT ( 'NONE',  ( 0.000000000000000000, 0.000000000000000000, 1.199999999999999956 ) ) ;
#204 = PRODUCT_DEFINITION ( 'NEZNÁMÝ', '', #178, #126 ) ;
#205 = ORIENTED_EDGE ( 'NONE', *, *, #188, .F. ) ;
#206 = CIRCLE ( 'NONE', #71, 0.5000000000000000000 ) ;
#207 = CARTESIAN_POINT ( 'NONE',  ( 0.000000000000000000, 0.000000000000000000, 0.000000000000000000 ) ) ;
#208 = FACE_BOUND ( 'NONE', #89, .T. ) ;
#209 = DIRECTION ( 'NONE',  ( 0.000000000000000000, 0.000000000000000000, 1.000000000000000000 ) ) ;
#210 = LOCAL_TIME ( 15, 46, 44.00000000000000000, #197 ) ;
#211 = FACE_OUTER_BOUND ( 'NONE', #236, .T. ) ;
#212 = PERSON ( 'NEURÈENÝ', 'NEURÈENÝ', 'NEURÈENÝ', ('NEURÈENÝ'), ('NEURÈENÝ'), ('NEURÈENÝ') ) ;
#213 = DIRECTION ( 'NONE',  ( -1.000000000000000000, 0.000000000000000000, 0.000000000000000000 ) ) ;
#214 = CARTESIAN_POINT ( 'NONE',  ( 1.250000000000000000, 1.530808498934191571E-16, 1.199999999999999956 ) ) ;
#215 = AXIS2_PLACEMENT_3D ( 'NONE', #19, #15, #248 ) ;
#216 = EDGE_LOOP ( 'NONE', ( #227, #113, #123, #244 ) ) ;
#217 = APPROVAL_DATE_TIME ( #117, #74 ) ;
#218 = AXIS2_PLACEMENT_3D ( 'NONE', #54, #125, #164 ) ;
#219 = VERTEX_POINT ( 'NONE', #132 ) ;
#220 = CALENDAR_DATE ( 2023, 31, 1 ) ;
#221 = APPROVAL ( #119, 'NEURÈENÝ' ) ;
#222 = ORIENTED_EDGE ( 'NONE', *, *, #82, .T. ) ;
#223 = APPROVAL_PERSON_ORGANIZATION ( #159, #60, #138 ) ;
#224 = PERSON_AND_ORGANIZATION_ROLE ( 'creator' ) ;
#225 = PRODUCT ( '3cff', '3cff', '', ( #78 ) ) ;
#226 = MANIFOLD_SOLID_BREP ( 'Pøidat vysunutím3', #108 ) ;
#227 = ORIENTED_EDGE ( 'NONE', *, *, #93, .F. ) ;
#228 = CARTESIAN_POINT ( 'NONE',  ( -1.250000000000000000, 0.000000000000000000, 0.000000000000000000 ) ) ;
#229 = DIRECTION ( 'NONE',  ( -0.000000000000000000, -0.000000000000000000, -1.000000000000000000 ) ) ;
#230 = FACE_OUTER_BOUND ( 'NONE', #200, .T. ) ;
#231 = ADVANCED_BREP_SHAPE_REPRESENTATION ( '3cff', ( #226, #134 ), #143 ) ;
#232 = DIRECTION ( 'NONE',  ( -0.000000000000000000, -0.000000000000000000, -1.000000000000000000 ) ) ;
#233 = CIRCLE ( 'NONE', #85, 0.5000000000000000000 ) ;
#234 = CARTESIAN_POINT ( 'NONE',  ( 0.000000000000000000, 0.000000000000000000, 1.199999999999999956 ) ) ;
#235 = EDGE_LOOP ( 'NONE', ( #158, #64, #120, #28 ) ) ;
#236 = EDGE_LOOP ( 'NONE', ( #245, #205 ) ) ;
#237 = COORDINATED_UNIVERSAL_TIME_OFFSET ( 1, 0, .AHEAD. ) ;
#238 = AXIS2_PLACEMENT_3D ( 'NONE', #203, #30, #84 ) ;
#239 = FACE_OUTER_BOUND ( 'NONE', #52, .T. ) ;
#240 = EDGE_CURVE ( 'NONE', #191, #87, #18, .T. ) ;
#241 = PERSON_AND_ORGANIZATION_ROLE ( 'design_supplier' ) ;
#242 = VERTEX_POINT ( 'NONE', #112 ) ;
#243 = PERSON_AND_ORGANIZATION ( #212, #255 ) ;
#244 = ORIENTED_EDGE ( 'NONE', *, *, #68, .F. ) ;
#245 = ORIENTED_EDGE ( 'NONE', *, *, #240, .F. ) ;
#246 = EDGE_CURVE ( 'NONE', #242, #87, #151, .T. ) ;
#247 = VECTOR ( 'NONE', #145, 1000.000000000000000 ) ;
#248 = DIRECTION ( 'NONE',  ( -1.000000000000000000, 0.000000000000000000, 0.000000000000000000 ) ) ;
#249 = DIRECTION ( 'NONE',  ( 1.000000000000000000, 0.000000000000000000, -0.000000000000000000 ) ) ;
#250 = AXIS2_PLACEMENT_3D ( 'NONE', #109, #14, #189 ) ;
#251 = EDGE_CURVE ( 'NONE', #219, #156, #152, .T. ) ;
#252 = LINE ( 'NONE', #144, #247 ) ;
#253 = FACE_OUTER_BOUND ( 'NONE', #77, .T. ) ;
#254 = DIRECTION ( 'NONE',  ( 1.000000000000000000, 0.000000000000000000, 0.000000000000000000 ) ) ;
#255 = ORGANIZATION ( 'NEURÈENÝ', 'NEURÈENÝ', '' ) ;
ENDSEC;
END-ISO-10303-21;
