ISO-10303-21;
HEADER;
FILE_DESCRIPTION (( 'STEP AP203' ),
    '1' );
FILE_NAME ('a26a.STEP',
    '2023-02-13T14:07:57',
    ( '' ),
    ( '' ),
    'SwSTEP 2.0',
    'SolidWorks 2019',
    '' );
FILE_SCHEMA (( 'CONFIG_CONTROL_DESIGN' ));
ENDSEC;

DATA;
#1 =( NAMED_UNIT ( * ) PLANE_ANGLE_UNIT ( ) SI_UNIT ( $, .RADIAN. ) );
#2 = CALENDAR_DATE ( 2023, 13, 2 ) ;
#3 = CC_DESIGN_DATE_AND_TIME_ASSIGNMENT ( #93, #14, ( #238 ) ) ;
#4 = DIRECTION ( 'NONE',  ( 0.000000000000000000, 0.000000000000000000, 1.000000000000000000 ) ) ;
#5 = APPROVAL_ROLE ( '' ) ;
#6 = AXIS2_PLACEMENT_3D ( 'NONE', #212, #184, #35 ) ;
#7 = CC_DESIGN_PERSON_AND_ORGANIZATION_ASSIGNMENT ( #110, #9, ( #66 ) ) ;
#8 = EDGE_CURVE ( 'NONE', #81, #21, #245, .T. ) ;
#9 = PERSON_AND_ORGANIZATION_ROLE ( 'design_supplier' ) ;
#10 = COORDINATED_UNIVERSAL_TIME_OFFSET ( 1, 0, .AHEAD. ) ;
#11 = ORIENTED_EDGE ( 'NONE', *, *, #101, .T. ) ;
#12 = FACE_OUTER_BOUND ( 'NONE', #100, .T. ) ;
#13 = CIRCLE ( 'NONE', #141, 3.000000000000000444 ) ;
#14 = DATE_TIME_ROLE ( 'creation_date' ) ;
#15 = CARTESIAN_POINT ( 'NONE',  ( 0.000000000000000000, 0.000000000000000000, 5.000000000000000000 ) ) ;
#16 = FACE_OUTER_BOUND ( 'NONE', #240, .T. ) ;
#17 = ADVANCED_FACE ( 'NONE', ( #188, #12 ), #130, .T. ) ;
#18 = CARTESIAN_POINT ( 'NONE',  ( -3.000000000000000444, 0.000000000000000000, 5.000000000000000000 ) ) ;
#19 = APPROVAL_PERSON_ORGANIZATION ( #233, #247, #127 ) ;
#20 = CARTESIAN_POINT ( 'NONE',  ( 3.000000000000000444, 3.673940397442060361E-16, 125.0000000000000000 ) ) ;
#21 = VERTEX_POINT ( 'NONE', #148 ) ;
#22 = EDGE_CURVE ( 'NONE', #25, #169, #195, .T. ) ;
#23 = AXIS2_PLACEMENT_3D ( 'NONE', #251, #114, #253 ) ;
#24 = DIRECTION ( 'NONE',  ( 1.000000000000000000, 0.000000000000000000, -0.000000000000000000 ) ) ;
#25 = VERTEX_POINT ( 'NONE', #18 ) ;
#26 = EDGE_CURVE ( 'NONE', #81, #78, #170, .T. ) ;
#27 = AXIS2_PLACEMENT_3D ( 'NONE', #51, #128, #24 ) ;
#28 = CIRCLE ( 'NONE', #168, 3.000000000000000444 ) ;
#29 = PERSON_AND_ORGANIZATION ( #49, #125 ) ;
#30 = EDGE_LOOP ( 'NONE', ( #229, #63 ) ) ;
#31 = CIRCLE ( 'NONE', #97, 6.000000000000000888 ) ;
#32 = PERSON_AND_ORGANIZATION ( #49, #125 ) ;
#33 = DIRECTION ( 'NONE',  ( -0.000000000000000000, -0.000000000000000000, -1.000000000000000000 ) ) ;
#34 = PERSON_AND_ORGANIZATION_ROLE ( 'creator' ) ;
#35 = DIRECTION ( 'NONE',  ( -1.000000000000000000, 0.000000000000000000, 0.000000000000000000 ) ) ;
#36 = AXIS2_PLACEMENT_3D ( 'NONE', #156, #140, #138 ) ;
#37 = DIRECTION ( 'NONE',  ( -0.000000000000000000, -0.000000000000000000, -1.000000000000000000 ) ) ;
#38 = ADVANCED_FACE ( 'NONE', ( #151 ), #111, .T. ) ;
#39 = DIRECTION ( 'NONE',  ( -1.000000000000000000, 0.000000000000000000, 0.000000000000000000 ) ) ;
#40 = AXIS2_PLACEMENT_3D ( 'NONE', #230, #181, #227 ) ;
#41 = CARTESIAN_POINT ( 'NONE',  ( 0.000000000000000000, 0.000000000000000000, 0.000000000000000000 ) ) ;
#42 = DIRECTION ( 'NONE',  ( -0.000000000000000000, -0.000000000000000000, -1.000000000000000000 ) ) ;
#43 = VERTEX_POINT ( 'NONE', #133 ) ;
#44 = AXIS2_PLACEMENT_3D ( 'NONE', #116, #193, #174 ) ;
#45 = ADVANCED_FACE ( 'NONE', ( #146 ), #183, .T. ) ;
#46 = EDGE_CURVE ( 'NONE', #21, #218, #150, .T. ) ;
#47 =( GEOMETRIC_REPRESENTATION_CONTEXT ( 3 ) GLOBAL_UNCERTAINTY_ASSIGNED_CONTEXT ( ( #108 ) ) GLOBAL_UNIT_ASSIGNED_CONTEXT ( ( #103, #1, #235 ) ) REPRESENTATION_CONTEXT ( 'NONE', 'WORKASPACE' ) );
#48 = DESIGN_CONTEXT ( 'detailed design', #197, 'design' ) ;
#49 = PERSON ( 'NEURÈENÝ', 'NEURÈENÝ', 'NEURÈENÝ', ('NEURÈENÝ'), ('NEURÈENÝ'), ('NEURÈENÝ') ) ;
#50 = AXIS2_PLACEMENT_3D ( 'NONE', #69, #37, #213 ) ;
#51 = CARTESIAN_POINT ( 'NONE',  ( 0.000000000000000000, 0.000000000000000000, 0.000000000000000000 ) ) ;
#52 = AXIS2_PLACEMENT_3D ( 'NONE', #232, #4, #64 ) ;
#53 = PERSON_AND_ORGANIZATION ( #49, #125 ) ;
#54 = VERTEX_POINT ( 'NONE', #92 ) ;
#55 = DIRECTION ( 'NONE',  ( -0.000000000000000000, -0.000000000000000000, -1.000000000000000000 ) ) ;
#56 = AXIS2_PLACEMENT_3D ( 'NONE', #72, #210, #209 ) ;
#57 = CARTESIAN_POINT ( 'NONE',  ( 6.000000000000000888, 7.347880794884120722E-16, 5.000000000000000000 ) ) ;
#58 = ADVANCED_FACE ( 'NONE', ( #249 ), #149, .T. ) ;
#59 = CC_DESIGN_PERSON_AND_ORGANIZATION_ASSIGNMENT ( #118, #206, ( #198 ) ) ;
#60 = DIRECTION ( 'NONE',  ( 1.000000000000000000, 0.000000000000000000, -0.000000000000000000 ) ) ;
#61 = FACE_OUTER_BOUND ( 'NONE', #119, .T. ) ;
#62 = CC_DESIGN_APPROVAL ( #76, ( #198 ) ) ;
#63 = ORIENTED_EDGE ( 'NONE', *, *, #234, .F. ) ;
#64 = DIRECTION ( 'NONE',  ( 1.000000000000000000, 0.000000000000000000, 0.000000000000000000 ) ) ;
#65 = VECTOR ( 'NONE', #42, 1000.000000000000000 ) ;
#66 = PRODUCT_DEFINITION_FORMATION_WITH_SPECIFIED_SOURCE ( 'LIBOVOLNÝ', '', #244, .NOT_KNOWN. ) ;
#67 = APPROVAL_STATUS ( 'not_yet_approved' ) ;
#68 = DATE_TIME_ROLE ( 'classification_date' ) ;
#69 = CARTESIAN_POINT ( 'NONE',  ( 0.000000000000000000, 0.000000000000000000, 125.0000000000000000 ) ) ;
#70 = AXIS2_PLACEMENT_3D ( 'NONE', #15, #94, #187 ) ;
#71 = ADVANCED_FACE ( 'NONE', ( #224 ), #131, .T. ) ;
#72 = CARTESIAN_POINT ( 'NONE',  ( 0.000000000000000000, 0.000000000000000000, 5.000000000000000000 ) ) ;
#73 = AXIS2_PLACEMENT_3D ( 'NONE', #189, #80, #241 ) ;
#74 = COORDINATED_UNIVERSAL_TIME_OFFSET ( 1, 0, .AHEAD. ) ;
#75 = CARTESIAN_POINT ( 'NONE',  ( -6.000000000000000888, 0.000000000000000000, 5.000000000000000000 ) ) ;
#76 = APPROVAL ( #147, 'NEURÈENÝ' ) ;
#77 = DIRECTION ( 'NONE',  ( -0.000000000000000000, -0.000000000000000000, -1.000000000000000000 ) ) ;
#78 = VERTEX_POINT ( 'NONE', #112 ) ;
#79 = DIRECTION ( 'NONE',  ( 0.000000000000000000, 0.000000000000000000, 1.000000000000000000 ) ) ;
#80 = DIRECTION ( 'NONE',  ( 0.000000000000000000, 0.000000000000000000, 1.000000000000000000 ) ) ;
#81 = VERTEX_POINT ( 'NONE', #113 ) ;
#82 = DIRECTION ( 'NONE',  ( 1.000000000000000000, 0.000000000000000000, 0.000000000000000000 ) ) ;
#83 = ORIENTED_EDGE ( 'NONE', *, *, #162, .T. ) ;
#84 = LOCAL_TIME ( 15, 7, 57.00000000000000000, #182 ) ;
#85 = SHAPE_DEFINITION_REPRESENTATION ( #246, #136 ) ;
#86 = AXIS2_PLACEMENT_3D ( 'NONE', #132, #164, #60 ) ;
#87 = PERSON_AND_ORGANIZATION ( #49, #125 ) ;
#88 = APPROVAL ( #67, 'NEURÈENÝ' ) ;
#89 = ORIENTED_EDGE ( 'NONE', *, *, #46, .T. ) ;
#90 = CIRCLE ( 'NONE', #36, 6.000000000000000888 ) ;
#91 = CALENDAR_DATE ( 2023, 13, 2 ) ;
#92 = CARTESIAN_POINT ( 'NONE',  ( -3.000000000000000444, 0.000000000000000000, 125.0000000000000000 ) ) ;
#93 = DATE_AND_TIME ( #2, #160 ) ;
#94 = DIRECTION ( 'NONE',  ( 0.000000000000000000, 0.000000000000000000, 1.000000000000000000 ) ) ;
#95 = PLANE ( 'NONE',  #27 ) ;
#96 = CARTESIAN_POINT ( 'NONE',  ( -3.000000000000000444, 0.000000000000000000, 125.0000000000000000 ) ) ;
#97 = AXIS2_PLACEMENT_3D ( 'NONE', #41, #239, #152 ) ;
#98 = DIRECTION ( 'NONE',  ( 0.000000000000000000, 0.000000000000000000, 1.000000000000000000 ) ) ;
#99 = ORIENTED_EDGE ( 'NONE', *, *, #186, .F. ) ;
#100 = EDGE_LOOP ( 'NONE', ( #11, #231 ) ) ;
#101 = EDGE_CURVE ( 'NONE', #21, #81, #115, .T. ) ;
#102 = ADVANCED_FACE ( 'NONE', ( #16 ), #95, .F. ) ;
#103 =( LENGTH_UNIT ( ) NAMED_UNIT ( * ) SI_UNIT ( .MILLI., .METRE. ) );
#104 = APPLICATION_PROTOCOL_DEFINITION ( 'international standard', 'config_control_design', 1994, #197 ) ;
#105 = LOCAL_TIME ( 15, 7, 57.00000000000000000, #74 ) ;
#106 = EDGE_CURVE ( 'NONE', #54, #25, #200, .T. ) ;
#107 = EDGE_CURVE ( 'NONE', #78, #218, #90, .T. ) ;
#108 = UNCERTAINTY_MEASURE_WITH_UNIT (LENGTH_MEASURE( 1.000000000000000082E-05 ), #103, 'distance_accuracy_value', 'NONE');
#109 = ORIENTED_EDGE ( 'NONE', *, *, #107, .F. ) ;
#110 = PERSON_AND_ORGANIZATION ( #49, #125 ) ;
#111 = PLANE ( 'NONE',  #86 ) ;
#112 = CARTESIAN_POINT ( 'NONE',  ( 6.000000000000000888, 7.347880794884120722E-16, 0.000000000000000000 ) ) ;
#113 = CARTESIAN_POINT ( 'NONE',  ( 6.000000000000000888, 7.347880794884120722E-16, 5.000000000000000000 ) ) ;
#114 = DIRECTION ( 'NONE',  ( 0.000000000000000000, 0.000000000000000000, 1.000000000000000000 ) ) ;
#115 = CIRCLE ( 'NONE', #70, 6.000000000000000888 ) ;
#116 = CARTESIAN_POINT ( 'NONE',  ( 0.000000000000000000, 0.000000000000000000, 5.000000000000000000 ) ) ;
#117 = ORIENTED_EDGE ( 'NONE', *, *, #162, .F. ) ;
#118 = PERSON_AND_ORGANIZATION ( #49, #125 ) ;
#119 = EDGE_LOOP ( 'NONE', ( #214, #155, #237, #194 ) ) ;
#120 = DIRECTION ( 'NONE',  ( -0.000000000000000000, -0.000000000000000000, -1.000000000000000000 ) ) ;
#121 = ORIENTED_EDGE ( 'NONE', *, *, #106, .F. ) ;
#122 = CC_DESIGN_PERSON_AND_ORGANIZATION_ASSIGNMENT ( #196, #154, ( #244 ) ) ;
#123 = MECHANICAL_CONTEXT ( 'NONE', #171, 'mechanical' ) ;
#124 = ORIENTED_EDGE ( 'NONE', *, *, #234, .T. ) ;
#125 = ORGANIZATION ( 'NEURÈENÝ', 'NEURÈENÝ', '' ) ;
#126 = EDGE_CURVE ( 'NONE', #43, #169, #216, .T. ) ;
#127 = APPROVAL_ROLE ( '' ) ;
#128 = DIRECTION ( 'NONE',  ( 0.000000000000000000, 0.000000000000000000, 1.000000000000000000 ) ) ;
#129 = PERSON_AND_ORGANIZATION_ROLE ( 'creator' ) ;
#130 = PLANE ( 'NONE',  #56 ) ;
#131 = CYLINDRICAL_SURFACE ( 'NONE', #6, 3.000000000000000444 ) ;
#132 = CARTESIAN_POINT ( 'NONE',  ( 0.000000000000000000, 0.000000000000000000, 125.0000000000000000 ) ) ;
#133 = CARTESIAN_POINT ( 'NONE',  ( 3.000000000000000444, 3.673940397442060361E-16, 125.0000000000000000 ) ) ;
#134 = EDGE_CURVE ( 'NONE', #218, #78, #31, .T. ) ;
#135 = ORIENTED_EDGE ( 'NONE', *, *, #106, .T. ) ;
#136 = ADVANCED_BREP_SHAPE_REPRESENTATION ( 'a26a', ( #201, #52 ), #47 ) ;
#137 = ORIENTED_EDGE ( 'NONE', *, *, #26, .F. ) ;
#138 = DIRECTION ( 'NONE',  ( 1.000000000000000000, 0.000000000000000000, 0.000000000000000000 ) ) ;
#139 = ORIENTED_EDGE ( 'NONE', *, *, #126, .F. ) ;
#140 = DIRECTION ( 'NONE',  ( 0.000000000000000000, 0.000000000000000000, 1.000000000000000000 ) ) ;
#141 = AXIS2_PLACEMENT_3D ( 'NONE', #177, #98, #175 ) ;
#142 = CLOSED_SHELL ( 'NONE', ( #71, #208, #45, #17, #102, #58, #38 ) ) ;
#143 = CC_DESIGN_APPROVAL ( #88, ( #238 ) ) ;
#144 = ORIENTED_EDGE ( 'NONE', *, *, #134, .F. ) ;
#145 = CALENDAR_DATE ( 2023, 13, 2 ) ;
#146 = FACE_OUTER_BOUND ( 'NONE', #166, .T. ) ;
#147 = APPROVAL_STATUS ( 'not_yet_approved' ) ;
#148 = CARTESIAN_POINT ( 'NONE',  ( -6.000000000000000888, 0.000000000000000000, 5.000000000000000000 ) ) ;
#149 = CYLINDRICAL_SURFACE ( 'NONE', #50, 3.000000000000000444 ) ;
#150 = LINE ( 'NONE', #75, #205 ) ;
#151 = FACE_OUTER_BOUND ( 'NONE', #172, .T. ) ;
#152 = DIRECTION ( 'NONE',  ( 1.000000000000000000, 0.000000000000000000, 0.000000000000000000 ) ) ;
#153 = APPROVAL_STATUS ( 'not_yet_approved' ) ;
#154 = PERSON_AND_ORGANIZATION_ROLE ( 'design_owner' ) ;
#155 = ORIENTED_EDGE ( 'NONE', *, *, #26, .T. ) ;
#156 = CARTESIAN_POINT ( 'NONE',  ( 0.000000000000000000, 0.000000000000000000, 0.000000000000000000 ) ) ;
#157 = ORIENTED_EDGE ( 'NONE', *, *, #126, .T. ) ;
#158 = CARTESIAN_POINT ( 'NONE',  ( 3.000000000000000444, 3.673940397442060361E-16, 5.000000000000000000 ) ) ;
#159 = CC_DESIGN_PERSON_AND_ORGANIZATION_ASSIGNMENT ( #32, #34, ( #66 ) ) ;
#160 = LOCAL_TIME ( 15, 7, 57.00000000000000000, #223 ) ;
#161 = EDGE_LOOP ( 'NONE', ( #139, #117, #135, #191 ) ) ;
#162 = EDGE_CURVE ( 'NONE', #54, #43, #242, .T. ) ;
#163 = APPROVAL_PERSON_ORGANIZATION ( #29, #88, #5 ) ;
#164 = DIRECTION ( 'NONE',  ( 0.000000000000000000, 0.000000000000000000, 1.000000000000000000 ) ) ;
#165 = VECTOR ( 'NONE', #120, 1000.000000000000000 ) ;
#166 = EDGE_LOOP ( 'NONE', ( #137, #222, #89, #219 ) ) ;
#167 = DATE_AND_TIME ( #91, #105 ) ;
#168 = AXIS2_PLACEMENT_3D ( 'NONE', #255, #79, #82 ) ;
#169 = VERTEX_POINT ( 'NONE', #158 ) ;
#170 = LINE ( 'NONE', #57, #202 ) ;
#171 = APPLICATION_CONTEXT ( 'configuration controlled 3d designs of mechanical parts and assemblies' ) ;
#172 = EDGE_LOOP ( 'NONE', ( #83, #204 ) ) ;
#173 = AXIS2_PLACEMENT_3D ( 'NONE', #254, #77, #39 ) ;
#174 = DIRECTION ( 'NONE',  ( -1.000000000000000000, 0.000000000000000000, 0.000000000000000000 ) ) ;
#175 = DIRECTION ( 'NONE',  ( 1.000000000000000000, 0.000000000000000000, 0.000000000000000000 ) ) ;
#176 = DATE_AND_TIME ( #145, #178 ) ;
#177 = CARTESIAN_POINT ( 'NONE',  ( 0.000000000000000000, 0.000000000000000000, 5.000000000000000000 ) ) ;
#178 = LOCAL_TIME ( 15, 7, 57.00000000000000000, #203 ) ;
#179 = DATE_AND_TIME ( #250, #190 ) ;
#180 = SECURITY_CLASSIFICATION_LEVEL ( 'unclassified' ) ;
#181 = DIRECTION ( 'NONE',  ( 0.000000000000000000, 0.000000000000000000, 1.000000000000000000 ) ) ;
#182 = COORDINATED_UNIVERSAL_TIME_OFFSET ( 1, 0, .AHEAD. ) ;
#183 = CYLINDRICAL_SURFACE ( 'NONE', #173, 6.000000000000000888 ) ;
#184 = DIRECTION ( 'NONE',  ( -0.000000000000000000, -0.000000000000000000, -1.000000000000000000 ) ) ;
#185 = CC_DESIGN_SECURITY_CLASSIFICATION ( #198, ( #66 ) ) ;
#186 = EDGE_CURVE ( 'NONE', #43, #54, #28, .T. ) ;
#187 = DIRECTION ( 'NONE',  ( 1.000000000000000000, 0.000000000000000000, 0.000000000000000000 ) ) ;
#188 = FACE_BOUND ( 'NONE', #30, .T. ) ;
#189 = CARTESIAN_POINT ( 'NONE',  ( 0.000000000000000000, 0.000000000000000000, 125.0000000000000000 ) ) ;
#190 = LOCAL_TIME ( 15, 7, 57.00000000000000000, #10 ) ;
#191 = ORIENTED_EDGE ( 'NONE', *, *, #22, .T. ) ;
#192 = EDGE_LOOP ( 'NONE', ( #99, #157, #124, #121 ) ) ;
#193 = DIRECTION ( 'NONE',  ( -0.000000000000000000, -0.000000000000000000, -1.000000000000000000 ) ) ;
#194 = ORIENTED_EDGE ( 'NONE', *, *, #46, .F. ) ;
#195 = CIRCLE ( 'NONE', #40, 3.000000000000000444 ) ;
#196 = PERSON_AND_ORGANIZATION ( #49, #125 ) ;
#197 = APPLICATION_CONTEXT ( 'configuration controlled 3d designs of mechanical parts and assemblies' ) ;
#198 = SECURITY_CLASSIFICATION ( '', '', #180 ) ;
#199 = PRODUCT_RELATED_PRODUCT_CATEGORY ( 'detail', '', ( #244 ) ) ;
#200 = LINE ( 'NONE', #96, #165 ) ;
#201 = MANIFOLD_SOLID_BREP ( 'Pøidat vysunutím3', #142 ) ;
#202 = VECTOR ( 'NONE', #33, 1000.000000000000000 ) ;
#203 = COORDINATED_UNIVERSAL_TIME_OFFSET ( 1, 0, .AHEAD. ) ;
#204 = ORIENTED_EDGE ( 'NONE', *, *, #186, .T. ) ;
#205 = VECTOR ( 'NONE', #55, 1000.000000000000000 ) ;
#206 = PERSON_AND_ORGANIZATION_ROLE ( 'classification_officer' ) ;
#207 = CALENDAR_DATE ( 2023, 13, 2 ) ;
#208 = ADVANCED_FACE ( 'NONE', ( #61 ), #217, .T. ) ;
#209 = DIRECTION ( 'NONE',  ( 1.000000000000000000, 0.000000000000000000, -0.000000000000000000 ) ) ;
#210 = DIRECTION ( 'NONE',  ( 0.000000000000000000, 0.000000000000000000, 1.000000000000000000 ) ) ;
#211 = APPROVAL_DATE_TIME ( #176, #88 ) ;
#212 = CARTESIAN_POINT ( 'NONE',  ( 0.000000000000000000, 0.000000000000000000, 125.0000000000000000 ) ) ;
#213 = DIRECTION ( 'NONE',  ( -1.000000000000000000, 0.000000000000000000, 0.000000000000000000 ) ) ;
#214 = ORIENTED_EDGE ( 'NONE', *, *, #8, .F. ) ;
#215 = APPLICATION_PROTOCOL_DEFINITION ( 'international standard', 'config_control_design', 1994, #171 ) ;
#216 = LINE ( 'NONE', #20, #65 ) ;
#217 = CYLINDRICAL_SURFACE ( 'NONE', #44, 6.000000000000000888 ) ;
#218 = VERTEX_POINT ( 'NONE', #221 ) ;
#219 = ORIENTED_EDGE ( 'NONE', *, *, #134, .T. ) ;
#220 = CC_DESIGN_DATE_AND_TIME_ASSIGNMENT ( #179, #68, ( #198 ) ) ;
#221 = CARTESIAN_POINT ( 'NONE',  ( -6.000000000000000888, 0.000000000000000000, 0.000000000000000000 ) ) ;
#222 = ORIENTED_EDGE ( 'NONE', *, *, #101, .F. ) ;
#223 = COORDINATED_UNIVERSAL_TIME_OFFSET ( 1, 0, .AHEAD. ) ;
#224 = FACE_OUTER_BOUND ( 'NONE', #192, .T. ) ;
#225 = APPROVAL_PERSON_ORGANIZATION ( #87, #76, #226 ) ;
#226 = APPROVAL_ROLE ( '' ) ;
#227 = DIRECTION ( 'NONE',  ( 1.000000000000000000, 0.000000000000000000, 0.000000000000000000 ) ) ;
#228 = CC_DESIGN_PERSON_AND_ORGANIZATION_ASSIGNMENT ( #53, #129, ( #238 ) ) ;
#229 = ORIENTED_EDGE ( 'NONE', *, *, #22, .F. ) ;
#230 = CARTESIAN_POINT ( 'NONE',  ( 0.000000000000000000, 0.000000000000000000, 5.000000000000000000 ) ) ;
#231 = ORIENTED_EDGE ( 'NONE', *, *, #8, .T. ) ;
#232 = CARTESIAN_POINT ( 'NONE',  ( 0.000000000000000000, 0.000000000000000000, 0.000000000000000000 ) ) ;
#233 = PERSON_AND_ORGANIZATION ( #49, #125 ) ;
#234 = EDGE_CURVE ( 'NONE', #169, #25, #13, .T. ) ;
#235 =( NAMED_UNIT ( * ) SI_UNIT ( $, .STERADIAN. ) SOLID_ANGLE_UNIT ( ) );
#236 = APPROVAL_DATE_TIME ( #248, #247 ) ;
#237 = ORIENTED_EDGE ( 'NONE', *, *, #107, .T. ) ;
#238 = PRODUCT_DEFINITION ( 'NEZNÁMÝ', '', #66, #48 ) ;
#239 = DIRECTION ( 'NONE',  ( 0.000000000000000000, 0.000000000000000000, 1.000000000000000000 ) ) ;
#240 = EDGE_LOOP ( 'NONE', ( #144, #109 ) ) ;
#241 = DIRECTION ( 'NONE',  ( 1.000000000000000000, 0.000000000000000000, 0.000000000000000000 ) ) ;
#242 = CIRCLE ( 'NONE', #73, 3.000000000000000444 ) ;
#243 = CC_DESIGN_APPROVAL ( #247, ( #66 ) ) ;
#244 = PRODUCT ( 'a26a', 'a26a', '', ( #123 ) ) ;
#245 = CIRCLE ( 'NONE', #23, 6.000000000000000888 ) ;
#246 = PRODUCT_DEFINITION_SHAPE ( 'NONE', 'NONE',  #238 ) ;
#247 = APPROVAL ( #153, 'NEURÈENÝ' ) ;
#248 = DATE_AND_TIME ( #207, #84 ) ;
#249 = FACE_OUTER_BOUND ( 'NONE', #161, .T. ) ;
#250 = CALENDAR_DATE ( 2023, 13, 2 ) ;
#251 = CARTESIAN_POINT ( 'NONE',  ( 0.000000000000000000, 0.000000000000000000, 5.000000000000000000 ) ) ;
#252 = APPROVAL_DATE_TIME ( #167, #76 ) ;
#253 = DIRECTION ( 'NONE',  ( 1.000000000000000000, 0.000000000000000000, 0.000000000000000000 ) ) ;
#254 = CARTESIAN_POINT ( 'NONE',  ( 0.000000000000000000, 0.000000000000000000, 5.000000000000000000 ) ) ;
#255 = CARTESIAN_POINT ( 'NONE',  ( 0.000000000000000000, 0.000000000000000000, 125.0000000000000000 ) ) ;
ENDSEC;
END-ISO-10303-21;
