ISO-10303-21;
HEADER;
FILE_DESCRIPTION (( 'STEP AP203' ),
    '1' );
FILE_NAME ('4edb.STEP',
    '2023-02-13T09:22:53',
    ( '' ),
    ( '' ),
    'SwSTEP 2.0',
    'SolidWorks 2019',
    '' );
FILE_SCHEMA (( 'CONFIG_CONTROL_DESIGN' ));
ENDSEC;

DATA;
#1 = AXIS2_PLACEMENT_3D ( 'NONE', #78, #199, #250 ) ;
#2 = MANIFOLD_SOLID_BREP ( 'Pøidat vysunutím3', #29 ) ;
#3 = CARTESIAN_POINT ( 'NONE',  ( -11.00000000000000000, 0.000000000000000000, 7.000000000000000000 ) ) ;
#4 =( NAMED_UNIT ( * ) SI_UNIT ( $, .STERADIAN. ) SOLID_ANGLE_UNIT ( ) );
#5 = AXIS2_PLACEMENT_3D ( 'NONE', #107, #140, #46 ) ;
#6 = PERSON_AND_ORGANIZATION_ROLE ( 'classification_officer' ) ;
#7 = EDGE_CURVE ( 'NONE', #47, #148, #87, .T. ) ;
#8 = EDGE_LOOP ( 'NONE', ( #54, #245, #91, #221 ) ) ;
#9 = COORDINATED_UNIVERSAL_TIME_OFFSET ( 1, 0, .AHEAD. ) ;
#10 = APPLICATION_PROTOCOL_DEFINITION ( 'international standard', 'config_control_design', 1994, #228 ) ;
#11 = ADVANCED_FACE ( 'NONE', ( #33 ), #166, .T. ) ;
#12 = AXIS2_PLACEMENT_3D ( 'NONE', #190, #247, #74 ) ;
#13 = ORIENTED_EDGE ( 'NONE', *, *, #233, .T. ) ;
#14 = EDGE_LOOP ( 'NONE', ( #50, #113 ) ) ;
#15 = CIRCLE ( 'NONE', #225, 7.000000000000000888 ) ;
#16 = DIRECTION ( 'NONE',  ( 0.000000000000000000, 0.000000000000000000, 1.000000000000000000 ) ) ;
#17 = AXIS2_PLACEMENT_3D ( 'NONE', #175, #212, #96 ) ;
#18 = PLANE ( 'NONE',  #68 ) ;
#19 = DIRECTION ( 'NONE',  ( 1.000000000000000000, 0.000000000000000000, 0.000000000000000000 ) ) ;
#20 = CC_DESIGN_DATE_AND_TIME_ASSIGNMENT ( #109, #48, ( #51 ) ) ;
#21 = CARTESIAN_POINT ( 'NONE',  ( -11.00000000000000000, 0.000000000000000000, 0.000000000000000000 ) ) ;
#22 = DIRECTION ( 'NONE',  ( 1.000000000000000000, 0.000000000000000000, 0.000000000000000000 ) ) ;
#23 = DIRECTION ( 'NONE',  ( -1.000000000000000000, 0.000000000000000000, 0.000000000000000000 ) ) ;
#24 = PERSON_AND_ORGANIZATION_ROLE ( 'design_owner' ) ;
#25 = PERSON_AND_ORGANIZATION ( #248, #147 ) ;
#26 = SECURITY_CLASSIFICATION_LEVEL ( 'unclassified' ) ;
#27 = PRODUCT_RELATED_PRODUCT_CATEGORY ( 'detail', '', ( #216 ) ) ;
#28 = MECHANICAL_CONTEXT ( 'NONE', #228, 'mechanical' ) ;
#29 = CLOSED_SHELL ( 'NONE', ( #145, #55, #64, #34, #236, #11, #188 ) ) ;
#30 = COORDINATED_UNIVERSAL_TIME_OFFSET ( 1, 0, .AHEAD. ) ;
#31 = VECTOR ( 'NONE', #194, 1000.000000000000000 ) ;
#32 = ORIENTED_EDGE ( 'NONE', *, *, #162, .T. ) ;
#33 = FACE_OUTER_BOUND ( 'NONE', #206, .T. ) ;
#34 = ADVANCED_FACE ( 'NONE', ( #152, #150 ), #210, .T. ) ;
#35 = ORIENTED_EDGE ( 'NONE', *, *, #149, .T. ) ;
#36 = CC_DESIGN_PERSON_AND_ORGANIZATION_ASSIGNMENT ( #63, #6, ( #51 ) ) ;
#37 = ORIENTED_EDGE ( 'NONE', *, *, #52, .F. ) ;
#38 = CARTESIAN_POINT ( 'NONE',  ( -11.00000000000000000, 0.000000000000000000, 7.000000000000000000 ) ) ;
#39 = CARTESIAN_POINT ( 'NONE',  ( 7.000000000000000888, 8.572527594031474176E-16, 250.0000000000000000 ) ) ;
#40 = DIRECTION ( 'NONE',  ( 0.000000000000000000, 0.000000000000000000, 1.000000000000000000 ) ) ;
#41 = CARTESIAN_POINT ( 'NONE',  ( 0.000000000000000000, 0.000000000000000000, 0.000000000000000000 ) ) ;
#42 = FACE_OUTER_BOUND ( 'NONE', #8, .T. ) ;
#43 = AXIS2_PLACEMENT_3D ( 'NONE', #136, #40, #213 ) ;
#44 = PERSON_AND_ORGANIZATION ( #248, #147 ) ;
#45 = CALENDAR_DATE ( 2023, 13, 2 ) ;
#46 = DIRECTION ( 'NONE',  ( 1.000000000000000000, 0.000000000000000000, 0.000000000000000000 ) ) ;
#47 = VERTEX_POINT ( 'NONE', #171 ) ;
#48 = DATE_TIME_ROLE ( 'classification_date' ) ;
#49 = AXIS2_PLACEMENT_3D ( 'NONE', #138, #97, #123 ) ;
#50 = ORIENTED_EDGE ( 'NONE', *, *, #149, .F. ) ;
#51 = SECURITY_CLASSIFICATION ( '', '', #26 ) ;
#52 = EDGE_CURVE ( 'NONE', #53, #223, #186, .T. ) ;
#53 = VERTEX_POINT ( 'NONE', #234 ) ;
#54 = ORIENTED_EDGE ( 'NONE', *, *, #7, .F. ) ;
#55 = ADVANCED_FACE ( 'NONE', ( #42 ), #215, .T. ) ;
#56 = DIRECTION ( 'NONE',  ( 0.000000000000000000, 0.000000000000000000, 1.000000000000000000 ) ) ;
#57 = FACE_OUTER_BOUND ( 'NONE', #14, .T. ) ;
#58 = CARTESIAN_POINT ( 'NONE',  ( 11.00000000000000000, 1.347111479062088405E-15, 0.000000000000000000 ) ) ;
#59 = DIRECTION ( 'NONE',  ( 1.000000000000000000, 0.000000000000000000, 0.000000000000000000 ) ) ;
#60 = EDGE_CURVE ( 'NONE', #223, #88, #214, .T. ) ;
#61 = CARTESIAN_POINT ( 'NONE',  ( -7.000000000000000888, 0.000000000000000000, 250.0000000000000000 ) ) ;
#62 = LOCAL_TIME ( 10, 22, 53.00000000000000000, #9 ) ;
#63 = PERSON_AND_ORGANIZATION ( #248, #147 ) ;
#64 = ADVANCED_FACE ( 'NONE', ( #80 ), #232, .T. ) ;
#65 = APPROVAL_STATUS ( 'not_yet_approved' ) ;
#66 = CC_DESIGN_PERSON_AND_ORGANIZATION_ASSIGNMENT ( #83, #69, ( #86 ) ) ;
#67 = ORIENTED_EDGE ( 'NONE', *, *, #82, .F. ) ;
#68 = AXIS2_PLACEMENT_3D ( 'NONE', #173, #127, #105 ) ;
#69 = PERSON_AND_ORGANIZATION_ROLE ( 'design_supplier' ) ;
#70 = ORIENTED_EDGE ( 'NONE', *, *, #98, .T. ) ;
#71 = ORIENTED_EDGE ( 'NONE', *, *, #60, .T. ) ;
#72 = DIRECTION ( 'NONE',  ( 0.000000000000000000, 0.000000000000000000, 1.000000000000000000 ) ) ;
#73 = CC_DESIGN_APPROVAL ( #217, ( #151 ) ) ;
#74 = DIRECTION ( 'NONE',  ( -1.000000000000000000, 0.000000000000000000, 0.000000000000000000 ) ) ;
#75 = CARTESIAN_POINT ( 'NONE',  ( 0.000000000000000000, 0.000000000000000000, 250.0000000000000000 ) ) ;
#76 = AXIS2_PLACEMENT_3D ( 'NONE', #196, #251, #176 ) ;
#77 = LOCAL_TIME ( 10, 22, 53.00000000000000000, #237 ) ;
#78 = CARTESIAN_POINT ( 'NONE',  ( 0.000000000000000000, 0.000000000000000000, 7.000000000000000000 ) ) ;
#79 = CARTESIAN_POINT ( 'NONE',  ( 0.000000000000000000, 0.000000000000000000, 7.000000000000000000 ) ) ;
#80 = FACE_OUTER_BOUND ( 'NONE', #229, .T. ) ;
#81 = PRODUCT_DEFINITION_SHAPE ( 'NONE', 'NONE',  #151 ) ;
#82 = EDGE_CURVE ( 'NONE', #88, #187, #15, .T. ) ;
#83 = PERSON_AND_ORGANIZATION ( #248, #147 ) ;
#84 = APPLICATION_PROTOCOL_DEFINITION ( 'international standard', 'config_control_design', 1994, #211 ) ;
#85 = PERSON_AND_ORGANIZATION ( #248, #147 ) ;
#86 = PRODUCT_DEFINITION_FORMATION_WITH_SPECIFIED_SOURCE ( 'LIBOVOLNÝ', '', #216, .NOT_KNOWN. ) ;
#87 = CIRCLE ( 'NONE', #240, 11.00000000000000000 ) ;
#88 = VERTEX_POINT ( 'NONE', #135 ) ;
#89 = ORIENTED_EDGE ( 'NONE', *, *, #120, .F. ) ;
#90 = DATE_AND_TIME ( #192, #77 ) ;
#91 = ORIENTED_EDGE ( 'NONE', *, *, #111, .T. ) ;
#92 = VERTEX_POINT ( 'NONE', #58 ) ;
#93 = VECTOR ( 'NONE', #134, 1000.000000000000000 ) ;
#94 = DIRECTION ( 'NONE',  ( 1.000000000000000000, 0.000000000000000000, -0.000000000000000000 ) ) ;
#95 = CC_DESIGN_APPROVAL ( #112, ( #86 ) ) ;
#96 = DIRECTION ( 'NONE',  ( -1.000000000000000000, 0.000000000000000000, 0.000000000000000000 ) ) ;
#97 = DIRECTION ( 'NONE',  ( 0.000000000000000000, 0.000000000000000000, 1.000000000000000000 ) ) ;
#98 = EDGE_CURVE ( 'NONE', #187, #88, #114, .T. ) ;
#99 = CARTESIAN_POINT ( 'NONE',  ( 11.00000000000000000, 1.347111479062088405E-15, 7.000000000000000000 ) ) ;
#100 = AXIS2_PLACEMENT_3D ( 'NONE', #75, #56, #230 ) ;
#101 = LINE ( 'NONE', #39, #118 ) ;
#102 = CC_DESIGN_DATE_AND_TIME_ASSIGNMENT ( #204, #179, ( #151 ) ) ;
#103 = PLANE ( 'NONE',  #100 ) ;
#104 = AXIS2_PLACEMENT_3D ( 'NONE', #255, #137, #19 ) ;
#105 = DIRECTION ( 'NONE',  ( 1.000000000000000000, 0.000000000000000000, -0.000000000000000000 ) ) ;
#106 = PERSON_AND_ORGANIZATION_ROLE ( 'creator' ) ;
#107 = CARTESIAN_POINT ( 'NONE',  ( 0.000000000000000000, 0.000000000000000000, 0.000000000000000000 ) ) ;
#108 = APPROVAL_DATE_TIME ( #124, #217 ) ;
#109 = DATE_AND_TIME ( #222, #195 ) ;
#110 = ORIENTED_EDGE ( 'NONE', *, *, #98, .F. ) ;
#111 = EDGE_CURVE ( 'NONE', #92, #167, #144, .T. ) ;
#112 = APPROVAL ( #65, 'NEURÈENÝ' ) ;
#113 = ORIENTED_EDGE ( 'NONE', *, *, #111, .F. ) ;
#114 = CIRCLE ( 'NONE', #1, 7.000000000000000888 ) ;
#115 = EDGE_LOOP ( 'NONE', ( #32, #227 ) ) ;
#116 = DIRECTION ( 'NONE',  ( -0.000000000000000000, -0.000000000000000000, -1.000000000000000000 ) ) ;
#117 = UNCERTAINTY_MEASURE_WITH_UNIT (LENGTH_MEASURE( 1.000000000000000082E-05 ), #129, 'distance_accuracy_value', 'NONE');
#118 = VECTOR ( 'NONE', #177, 1000.000000000000000 ) ;
#119 = LINE ( 'NONE', #99, #141 ) ;
#120 = EDGE_CURVE ( 'NONE', #223, #53, #244, .T. ) ;
#121 = FACE_OUTER_BOUND ( 'NONE', #132, .T. ) ;
#122 = CARTESIAN_POINT ( 'NONE',  ( 7.000000000000000888, 8.572527594031474176E-16, 7.000000000000000000 ) ) ;
#123 = DIRECTION ( 'NONE',  ( 1.000000000000000000, 0.000000000000000000, 0.000000000000000000 ) ) ;
#124 = DATE_AND_TIME ( #243, #62 ) ;
#125 = APPROVAL ( #185, 'NEURÈENÝ' ) ;
#126 = APPROVAL_ROLE ( '' ) ;
#127 = DIRECTION ( 'NONE',  ( 0.000000000000000000, 0.000000000000000000, 1.000000000000000000 ) ) ;
#128 = CC_DESIGN_PERSON_AND_ORGANIZATION_ASSIGNMENT ( #142, #161, ( #151 ) ) ;
#129 =( LENGTH_UNIT ( ) NAMED_UNIT ( * ) SI_UNIT ( .MILLI., .METRE. ) );
#130 = ORIENTED_EDGE ( 'NONE', *, *, #220, .F. ) ;
#131 = ORIENTED_EDGE ( 'NONE', *, *, #168, .F. ) ;
#132 = EDGE_LOOP ( 'NONE', ( #37, #246, #70, #242 ) ) ;
#133 = DIRECTION ( 'NONE',  ( 1.000000000000000000, 0.000000000000000000, 0.000000000000000000 ) ) ;
#134 = DIRECTION ( 'NONE',  ( -0.000000000000000000, -0.000000000000000000, -1.000000000000000000 ) ) ;
#135 = CARTESIAN_POINT ( 'NONE',  ( -7.000000000000000888, 0.000000000000000000, 7.000000000000000000 ) ) ;
#136 = CARTESIAN_POINT ( 'NONE',  ( 0.000000000000000000, 0.000000000000000000, 250.0000000000000000 ) ) ;
#137 = DIRECTION ( 'NONE',  ( 0.000000000000000000, 0.000000000000000000, 1.000000000000000000 ) ) ;
#138 = CARTESIAN_POINT ( 'NONE',  ( 0.000000000000000000, 0.000000000000000000, 250.0000000000000000 ) ) ;
#139 = AXIS2_PLACEMENT_3D ( 'NONE', #41, #218, #198 ) ;
#140 = DIRECTION ( 'NONE',  ( 0.000000000000000000, 0.000000000000000000, 1.000000000000000000 ) ) ;
#141 = VECTOR ( 'NONE', #116, 1000.000000000000000 ) ;
#142 = PERSON_AND_ORGANIZATION ( #248, #147 ) ;
#143 = EDGE_LOOP ( 'NONE', ( #189, #207 ) ) ;
#144 = CIRCLE ( 'NONE', #104, 11.00000000000000000 ) ;
#145 = ADVANCED_FACE ( 'NONE', ( #121 ), #197, .T. ) ;
#146 = APPROVAL_DATE_TIME ( #90, #125 ) ;
#147 = ORGANIZATION ( 'NEURÈENÝ', 'NEURÈENÝ', '' ) ;
#148 = VERTEX_POINT ( 'NONE', #38 ) ;
#149 = EDGE_CURVE ( 'NONE', #167, #92, #184, .T. ) ;
#150 = FACE_OUTER_BOUND ( 'NONE', #115, .T. ) ;
#151 = PRODUCT_DEFINITION ( 'NEZNÁMÝ', '', #86, #174 ) ;
#152 = FACE_BOUND ( 'NONE', #170, .T. ) ;
#153 = CARTESIAN_POINT ( 'NONE',  ( -7.000000000000000888, 0.000000000000000000, 250.0000000000000000 ) ) ;
#154 = DIRECTION ( 'NONE',  ( -0.000000000000000000, -0.000000000000000000, -1.000000000000000000 ) ) ;
#155 = LOCAL_TIME ( 10, 22, 53.00000000000000000, #200 ) ;
#156 = CARTESIAN_POINT ( 'NONE',  ( 0.000000000000000000, 0.000000000000000000, 7.000000000000000000 ) ) ;
#157 = FACE_OUTER_BOUND ( 'NONE', #143, .T. ) ;
#158 = APPROVAL_ROLE ( '' ) ;
#159 = CIRCLE ( 'NONE', #249, 11.00000000000000000 ) ;
#160 = PERSON_AND_ORGANIZATION ( #248, #147 ) ;
#161 = PERSON_AND_ORGANIZATION_ROLE ( 'creator' ) ;
#162 = EDGE_CURVE ( 'NONE', #148, #47, #159, .T. ) ;
#163 = ORIENTED_EDGE ( 'NONE', *, *, #162, .F. ) ;
#164 = APPROVAL_STATUS ( 'not_yet_approved' ) ;
#165 = SHAPE_DEFINITION_REPRESENTATION ( #81, #241 ) ;
#166 = CYLINDRICAL_SURFACE ( 'NONE', #12, 7.000000000000000888 ) ;
#167 = VERTEX_POINT ( 'NONE', #21 ) ;
#168 = EDGE_CURVE ( 'NONE', #47, #92, #119, .T. ) ;
#169 = AXIS2_PLACEMENT_3D ( 'NONE', #193, #16, #94 ) ;
#170 = EDGE_LOOP ( 'NONE', ( #67, #110 ) ) ;
#171 = CARTESIAN_POINT ( 'NONE',  ( 11.00000000000000000, 1.347111479062088405E-15, 7.000000000000000000 ) ) ;
#172 = APPROVAL_PERSON_ORGANIZATION ( #203, #217, #239 ) ;
#173 = CARTESIAN_POINT ( 'NONE',  ( 0.000000000000000000, 0.000000000000000000, 0.000000000000000000 ) ) ;
#174 = DESIGN_CONTEXT ( 'detailed design', #211, 'design' ) ;
#175 = CARTESIAN_POINT ( 'NONE',  ( 0.000000000000000000, 0.000000000000000000, 250.0000000000000000 ) ) ;
#176 = DIRECTION ( 'NONE',  ( -1.000000000000000000, 0.000000000000000000, 0.000000000000000000 ) ) ;
#177 = DIRECTION ( 'NONE',  ( -0.000000000000000000, -0.000000000000000000, -1.000000000000000000 ) ) ;
#178 = LINE ( 'NONE', #3, #31 ) ;
#179 = DATE_TIME_ROLE ( 'creation_date' ) ;
#180 = CC_DESIGN_APPROVAL ( #125, ( #51 ) ) ;
#181 = COORDINATED_UNIVERSAL_TIME_OFFSET ( 1, 0, .AHEAD. ) ;
#182 = CALENDAR_DATE ( 2023, 13, 2 ) ;
#183 = DATE_AND_TIME ( #182, #205 ) ;
#184 = CIRCLE ( 'NONE', #139, 11.00000000000000000 ) ;
#185 = APPROVAL_STATUS ( 'not_yet_approved' ) ;
#186 = CIRCLE ( 'NONE', #49, 7.000000000000000888 ) ;
#187 = VERTEX_POINT ( 'NONE', #122 ) ;
#188 = ADVANCED_FACE ( 'NONE', ( #157 ), #103, .T. ) ;
#189 = ORIENTED_EDGE ( 'NONE', *, *, #120, .T. ) ;
#190 = CARTESIAN_POINT ( 'NONE',  ( 0.000000000000000000, 0.000000000000000000, 250.0000000000000000 ) ) ;
#191 = AXIS2_PLACEMENT_3D ( 'NONE', #156, #154, #23 ) ;
#192 = CALENDAR_DATE ( 2023, 13, 2 ) ;
#193 = CARTESIAN_POINT ( 'NONE',  ( 0.000000000000000000, 0.000000000000000000, 7.000000000000000000 ) ) ;
#194 = DIRECTION ( 'NONE',  ( -0.000000000000000000, -0.000000000000000000, -1.000000000000000000 ) ) ;
#195 = LOCAL_TIME ( 10, 22, 53.00000000000000000, #30 ) ;
#196 = CARTESIAN_POINT ( 'NONE',  ( 0.000000000000000000, 0.000000000000000000, 7.000000000000000000 ) ) ;
#197 = CYLINDRICAL_SURFACE ( 'NONE', #17, 7.000000000000000888 ) ;
#198 = DIRECTION ( 'NONE',  ( 1.000000000000000000, 0.000000000000000000, 0.000000000000000000 ) ) ;
#199 = DIRECTION ( 'NONE',  ( 0.000000000000000000, 0.000000000000000000, 1.000000000000000000 ) ) ;
#200 = COORDINATED_UNIVERSAL_TIME_OFFSET ( 1, 0, .AHEAD. ) ;
#201 = APPROVAL_DATE_TIME ( #183, #112 ) ;
#202 = CC_DESIGN_SECURITY_CLASSIFICATION ( #51, ( #86 ) ) ;
#203 = PERSON_AND_ORGANIZATION ( #248, #147 ) ;
#204 = DATE_AND_TIME ( #45, #155 ) ;
#205 = LOCAL_TIME ( 10, 22, 53.00000000000000000, #181 ) ;
#206 = EDGE_LOOP ( 'NONE', ( #130, #89, #71, #226 ) ) ;
#207 = ORIENTED_EDGE ( 'NONE', *, *, #52, .T. ) ;
#208 = CC_DESIGN_PERSON_AND_ORGANIZATION_ASSIGNMENT ( #25, #106, ( #86 ) ) ;
#209 = CARTESIAN_POINT ( 'NONE',  ( 0.000000000000000000, 0.000000000000000000, 7.000000000000000000 ) ) ;
#210 = PLANE ( 'NONE',  #169 ) ;
#211 = APPLICATION_CONTEXT ( 'configuration controlled 3d designs of mechanical parts and assemblies' ) ;
#212 = DIRECTION ( 'NONE',  ( -0.000000000000000000, -0.000000000000000000, -1.000000000000000000 ) ) ;
#213 = DIRECTION ( 'NONE',  ( 1.000000000000000000, 0.000000000000000000, 0.000000000000000000 ) ) ;
#214 = LINE ( 'NONE', #153, #93 ) ;
#215 = CYLINDRICAL_SURFACE ( 'NONE', #191, 11.00000000000000000 ) ;
#216 = PRODUCT ( '4edb', '4edb', '', ( #28 ) ) ;
#217 = APPROVAL ( #164, 'NEURÈENÝ' ) ;
#218 = DIRECTION ( 'NONE',  ( 0.000000000000000000, 0.000000000000000000, 1.000000000000000000 ) ) ;
#219 = APPROVAL_PERSON_ORGANIZATION ( #160, #112, #126 ) ;
#220 = EDGE_CURVE ( 'NONE', #53, #187, #101, .T. ) ;
#221 = ORIENTED_EDGE ( 'NONE', *, *, #233, .F. ) ;
#222 = CALENDAR_DATE ( 2023, 13, 2 ) ;
#223 = VERTEX_POINT ( 'NONE', #61 ) ;
#224 =( NAMED_UNIT ( * ) PLANE_ANGLE_UNIT ( ) SI_UNIT ( $, .RADIAN. ) );
#225 = AXIS2_PLACEMENT_3D ( 'NONE', #252, #231, #59 ) ;
#226 = ORIENTED_EDGE ( 'NONE', *, *, #82, .T. ) ;
#227 = ORIENTED_EDGE ( 'NONE', *, *, #7, .T. ) ;
#228 = APPLICATION_CONTEXT ( 'configuration controlled 3d designs of mechanical parts and assemblies' ) ;
#229 = EDGE_LOOP ( 'NONE', ( #131, #163, #13, #35 ) ) ;
#230 = DIRECTION ( 'NONE',  ( 1.000000000000000000, 0.000000000000000000, -0.000000000000000000 ) ) ;
#231 = DIRECTION ( 'NONE',  ( 0.000000000000000000, 0.000000000000000000, 1.000000000000000000 ) ) ;
#232 = CYLINDRICAL_SURFACE ( 'NONE', #76, 11.00000000000000000 ) ;
#233 = EDGE_CURVE ( 'NONE', #148, #167, #178, .T. ) ;
#234 = CARTESIAN_POINT ( 'NONE',  ( 7.000000000000000888, 8.572527594031474176E-16, 250.0000000000000000 ) ) ;
#235 = DIRECTION ( 'NONE',  ( 0.000000000000000000, 0.000000000000000000, 1.000000000000000000 ) ) ;
#236 = ADVANCED_FACE ( 'NONE', ( #57 ), #18, .F. ) ;
#237 = COORDINATED_UNIVERSAL_TIME_OFFSET ( 1, 0, .AHEAD. ) ;
#238 = APPROVAL_PERSON_ORGANIZATION ( #85, #125, #158 ) ;
#239 = APPROVAL_ROLE ( '' ) ;
#240 = AXIS2_PLACEMENT_3D ( 'NONE', #209, #72, #133 ) ;
#241 = ADVANCED_BREP_SHAPE_REPRESENTATION ( '4edb', ( #2, #5 ), #254 ) ;
#242 = ORIENTED_EDGE ( 'NONE', *, *, #60, .F. ) ;
#243 = CALENDAR_DATE ( 2023, 13, 2 ) ;
#244 = CIRCLE ( 'NONE', #43, 7.000000000000000888 ) ;
#245 = ORIENTED_EDGE ( 'NONE', *, *, #168, .T. ) ;
#246 = ORIENTED_EDGE ( 'NONE', *, *, #220, .T. ) ;
#247 = DIRECTION ( 'NONE',  ( -0.000000000000000000, -0.000000000000000000, -1.000000000000000000 ) ) ;
#248 = PERSON ( 'NEURÈENÝ', 'NEURÈENÝ', 'NEURÈENÝ', ('NEURÈENÝ'), ('NEURÈENÝ'), ('NEURÈENÝ') ) ;
#249 = AXIS2_PLACEMENT_3D ( 'NONE', #79, #235, #22 ) ;
#250 = DIRECTION ( 'NONE',  ( 1.000000000000000000, 0.000000000000000000, 0.000000000000000000 ) ) ;
#251 = DIRECTION ( 'NONE',  ( -0.000000000000000000, -0.000000000000000000, -1.000000000000000000 ) ) ;
#252 = CARTESIAN_POINT ( 'NONE',  ( 0.000000000000000000, 0.000000000000000000, 7.000000000000000000 ) ) ;
#253 = CC_DESIGN_PERSON_AND_ORGANIZATION_ASSIGNMENT ( #44, #24, ( #216 ) ) ;
#254 =( GEOMETRIC_REPRESENTATION_CONTEXT ( 3 ) GLOBAL_UNCERTAINTY_ASSIGNED_CONTEXT ( ( #117 ) ) GLOBAL_UNIT_ASSIGNED_CONTEXT ( ( #129, #224, #4 ) ) REPRESENTATION_CONTEXT ( 'NONE', 'WORKASPACE' ) );
#255 = CARTESIAN_POINT ( 'NONE',  ( 0.000000000000000000, 0.000000000000000000, 0.000000000000000000 ) ) ;
ENDSEC;
END-ISO-10303-21;
