ISO-10303-21;
HEADER;
FILE_DESCRIPTION (( 'STEP AP203' ),
    '1' );
FILE_NAME ('bcac.STEP',
    '2023-01-31T14:49:12',
    ( '' ),
    ( '' ),
    'SwSTEP 2.0',
    'SolidWorks 2019',
    '' );
FILE_SCHEMA (( 'CONFIG_CONTROL_DESIGN' ));
ENDSEC;

DATA;
#1 = PRODUCT_DEFINITION_SHAPE ( 'NONE', 'NONE',  #118 ) ;
#2 = APPROVAL_DATE_TIME ( #152, #8 ) ;
#3 = ORIENTED_EDGE ( 'NONE', *, *, #36, .F. ) ;
#4 = COORDINATED_UNIVERSAL_TIME_OFFSET ( 1, 0, .AHEAD. ) ;
#5 = APPLICATION_CONTEXT ( 'configuration controlled 3d designs of mechanical parts and assemblies' ) ;
#6 = PERSON_AND_ORGANIZATION ( #7, #214 ) ;
#7 = PERSON ( 'NEURÈENÝ', 'NEURÈENÝ', 'NEURÈENÝ', ('NEURÈENÝ'), ('NEURÈENÝ'), ('NEURÈENÝ') ) ;
#8 = APPROVAL ( #207, 'NEURÈENÝ' ) ;
#9 = UNCERTAINTY_MEASURE_WITH_UNIT (LENGTH_MEASURE( 1.000000000000000082E-05 ), #192, 'distance_accuracy_value', 'NONE');
#10 = DIRECTION ( 'NONE',  ( 1.000000000000000000, 0.000000000000000000, 0.000000000000000000 ) ) ;
#11 = CARTESIAN_POINT ( 'NONE',  ( -1.250000000000000000, 0.000000000000000000, 1.199999999999999956 ) ) ;
#12 = VERTEX_POINT ( 'NONE', #129 ) ;
#13 = DIRECTION ( 'NONE',  ( -1.000000000000000000, 0.000000000000000000, 0.000000000000000000 ) ) ;
#14 = AXIS2_PLACEMENT_3D ( 'NONE', #79, #139, #247 ) ;
#15 = FACE_OUTER_BOUND ( 'NONE', #151, .T. ) ;
#16 = CALENDAR_DATE ( 2023, 31, 1 ) ;
#17 = ORIENTED_EDGE ( 'NONE', *, *, #124, .T. ) ;
#18 = CARTESIAN_POINT ( 'NONE',  ( -1.250000000000000000, 0.000000000000000000, 1.199999999999999956 ) ) ;
#19 = SECURITY_CLASSIFICATION ( '', '', #134 ) ;
#20 = AXIS2_PLACEMENT_3D ( 'NONE', #196, #84, #126 ) ;
#21 = ORIENTED_EDGE ( 'NONE', *, *, #141, .T. ) ;
#22 = APPLICATION_CONTEXT ( 'configuration controlled 3d designs of mechanical parts and assemblies' ) ;
#23 = ORIENTED_EDGE ( 'NONE', *, *, #218, .T. ) ;
#24 = DATE_AND_TIME ( #184, #117 ) ;
#25 = AXIS2_PLACEMENT_3D ( 'NONE', #199, #253, #65 ) ;
#26 = ORIENTED_EDGE ( 'NONE', *, *, #34, .T. ) ;
#27 = AXIS2_PLACEMENT_3D ( 'NONE', #62, #249, #13 ) ;
#28 = DIRECTION ( 'NONE',  ( 1.000000000000000000, 0.000000000000000000, 0.000000000000000000 ) ) ;
#29 = PERSON_AND_ORGANIZATION ( #7, #214 ) ;
#30 = APPROVAL ( #114, 'NEURÈENÝ' ) ;
#31 = AXIS2_PLACEMENT_3D ( 'NONE', #232, #176, #144 ) ;
#32 = DATE_AND_TIME ( #16, #238 ) ;
#33 = CYLINDRICAL_SURFACE ( 'NONE', #27, 1.250000000000000000 ) ;
#34 = EDGE_CURVE ( 'NONE', #179, #197, #173, .T. ) ;
#35 = FACE_OUTER_BOUND ( 'NONE', #99, .T. ) ;
#36 = EDGE_CURVE ( 'NONE', #161, #12, #71, .T. ) ;
#37 = DIRECTION ( 'NONE',  ( 1.000000000000000000, 0.000000000000000000, -0.000000000000000000 ) ) ;
#38 = FACE_OUTER_BOUND ( 'NONE', #105, .T. ) ;
#39 = AXIS2_PLACEMENT_3D ( 'NONE', #47, #55, #52 ) ;
#40 = FACE_BOUND ( 'NONE', #127, .T. ) ;
#41 = EDGE_CURVE ( 'NONE', #224, #197, #130, .T. ) ;
#42 = ORIENTED_EDGE ( 'NONE', *, *, #159, .F. ) ;
#43 = PERSON_AND_ORGANIZATION_ROLE ( 'design_owner' ) ;
#44 = CC_DESIGN_PERSON_AND_ORGANIZATION_ASSIGNMENT ( #181, #111, ( #118 ) ) ;
#45 = ORIENTED_EDGE ( 'NONE', *, *, #141, .F. ) ;
#46 = PERSON_AND_ORGANIZATION ( #7, #214 ) ;
#47 = CARTESIAN_POINT ( 'NONE',  ( 0.000000000000000000, 0.000000000000000000, 1.199999999999999956 ) ) ;
#48 = ADVANCED_BREP_SHAPE_REPRESENTATION ( 'bcac', ( #248, #25 ), #75 ) ;
#49 = ORIENTED_EDGE ( 'NONE', *, *, #159, .T. ) ;
#50 = APPROVAL_DATE_TIME ( #32, #186 ) ;
#51 = PERSON_AND_ORGANIZATION_ROLE ( 'creator' ) ;
#52 = DIRECTION ( 'NONE',  ( 1.000000000000000000, 0.000000000000000000, 0.000000000000000000 ) ) ;
#53 = CC_DESIGN_DATE_AND_TIME_ASSIGNMENT ( #24, #72, ( #118 ) ) ;
#54 = PERSON_AND_ORGANIZATION ( #7, #214 ) ;
#55 = DIRECTION ( 'NONE',  ( 0.000000000000000000, 0.000000000000000000, 1.000000000000000000 ) ) ;
#56 = CIRCLE ( 'NONE', #31, 1.250000000000000000 ) ;
#57 = PRODUCT ( 'bcac', 'bcac', '', ( #223 ) ) ;
#58 = DIRECTION ( 'NONE',  ( 0.000000000000000000, 0.000000000000000000, 1.000000000000000000 ) ) ;
#59 = CYLINDRICAL_SURFACE ( 'NONE', #14, 0.5000000000000000000 ) ;
#60 = ORIENTED_EDGE ( 'NONE', *, *, #251, .F. ) ;
#61 = VECTOR ( 'NONE', #239, 1000.000000000000000 ) ;
#62 = CARTESIAN_POINT ( 'NONE',  ( 0.000000000000000000, 0.000000000000000000, 1.199999999999999956 ) ) ;
#63 = ORIENTED_EDGE ( 'NONE', *, *, #110, .F. ) ;
#64 = FACE_OUTER_BOUND ( 'NONE', #164, .T. ) ;
#65 = DIRECTION ( 'NONE',  ( 1.000000000000000000, 0.000000000000000000, 0.000000000000000000 ) ) ;
#66 = CARTESIAN_POINT ( 'NONE',  ( 0.5000000000000000000, 6.123233995736766036E-17, 100.0000000000000000 ) ) ;
#67 = ORIENTED_EDGE ( 'NONE', *, *, #76, .T. ) ;
#68 = ORIENTED_EDGE ( 'NONE', *, *, #218, .F. ) ;
#69 = APPROVAL_STATUS ( 'not_yet_approved' ) ;
#70 = ORIENTED_EDGE ( 'NONE', *, *, #36, .T. ) ;
#71 = CIRCLE ( 'NONE', #185, 0.5000000000000000000 ) ;
#72 = DATE_TIME_ROLE ( 'creation_date' ) ;
#73 = PERSON_AND_ORGANIZATION ( #7, #214 ) ;
#74 = CARTESIAN_POINT ( 'NONE',  ( 0.000000000000000000, 0.000000000000000000, 100.0000000000000000 ) ) ;
#75 =( GEOMETRIC_REPRESENTATION_CONTEXT ( 3 ) GLOBAL_UNCERTAINTY_ASSIGNED_CONTEXT ( ( #9 ) ) GLOBAL_UNIT_ASSIGNED_CONTEXT ( ( #192, #213, #242 ) ) REPRESENTATION_CONTEXT ( 'NONE', 'WORKASPACE' ) );
#76 = EDGE_CURVE ( 'NONE', #191, #179, #245, .T. ) ;
#77 = AXIS2_PLACEMENT_3D ( 'NONE', #156, #140, #120 ) ;
#78 = EDGE_CURVE ( 'NONE', #12, #107, #109, .T. ) ;
#79 = CARTESIAN_POINT ( 'NONE',  ( 0.000000000000000000, 0.000000000000000000, 100.0000000000000000 ) ) ;
#80 = PLANE ( 'NONE',  #221 ) ;
#81 = CARTESIAN_POINT ( 'NONE',  ( 0.000000000000000000, 0.000000000000000000, 1.199999999999999956 ) ) ;
#82 = CARTESIAN_POINT ( 'NONE',  ( 0.000000000000000000, 0.000000000000000000, 1.199999999999999956 ) ) ;
#83 = APPROVAL_ROLE ( '' ) ;
#84 = DIRECTION ( 'NONE',  ( 0.000000000000000000, 0.000000000000000000, 1.000000000000000000 ) ) ;
#85 = DIRECTION ( 'NONE',  ( -0.000000000000000000, -0.000000000000000000, -1.000000000000000000 ) ) ;
#86 = PERSON_AND_ORGANIZATION ( #7, #214 ) ;
#87 = VERTEX_POINT ( 'NONE', #243 ) ;
#88 = CALENDAR_DATE ( 2023, 31, 1 ) ;
#89 = DIRECTION ( 'NONE',  ( -0.000000000000000000, -0.000000000000000000, -1.000000000000000000 ) ) ;
#90 = DATE_TIME_ROLE ( 'classification_date' ) ;
#91 = EDGE_CURVE ( 'NONE', #87, #107, #198, .T. ) ;
#92 = PERSON_AND_ORGANIZATION_ROLE ( 'classification_officer' ) ;
#93 = COORDINATED_UNIVERSAL_TIME_OFFSET ( 1, 0, .AHEAD. ) ;
#94 = DIRECTION ( 'NONE',  ( -0.000000000000000000, -0.000000000000000000, -1.000000000000000000 ) ) ;
#95 = CIRCLE ( 'NONE', #96, 0.5000000000000000000 ) ;
#96 = AXIS2_PLACEMENT_3D ( 'NONE', #82, #160, #142 ) ;
#97 = CARTESIAN_POINT ( 'NONE',  ( 1.250000000000000000, 1.530808498934191571E-16, 0.000000000000000000 ) ) ;
#98 = CARTESIAN_POINT ( 'NONE',  ( 0.000000000000000000, 0.000000000000000000, 100.0000000000000000 ) ) ;
#99 = EDGE_LOOP ( 'NONE', ( #70, #17 ) ) ;
#100 = CC_DESIGN_PERSON_AND_ORGANIZATION_ASSIGNMENT ( #46, #43, ( #57 ) ) ;
#101 = FACE_OUTER_BOUND ( 'NONE', #175, .T. ) ;
#102 = AXIS2_PLACEMENT_3D ( 'NONE', #189, #58, #10 ) ;
#103 = APPROVAL_PERSON_ORGANIZATION ( #54, #30, #154 ) ;
#104 = CARTESIAN_POINT ( 'NONE',  ( -1.250000000000000000, 0.000000000000000000, 0.000000000000000000 ) ) ;
#105 = EDGE_LOOP ( 'NONE', ( #162, #202, #23, #63 ) ) ;
#106 = CC_DESIGN_APPROVAL ( #8, ( #19 ) ) ;
#107 = VERTEX_POINT ( 'NONE', #227 ) ;
#108 = PRODUCT_RELATED_PRODUCT_CATEGORY ( 'detail', '', ( #57 ) ) ;
#109 = LINE ( 'NONE', #66, #155 ) ;
#110 = EDGE_CURVE ( 'NONE', #161, #87, #208, .T. ) ;
#111 = PERSON_AND_ORGANIZATION_ROLE ( 'creator' ) ;
#112 = DIRECTION ( 'NONE',  ( 1.000000000000000000, 0.000000000000000000, 0.000000000000000000 ) ) ;
#113 = AXIS2_PLACEMENT_3D ( 'NONE', #236, #171, #174 ) ;
#114 = APPROVAL_STATUS ( 'not_yet_approved' ) ;
#115 = CALENDAR_DATE ( 2023, 31, 1 ) ;
#116 = LOCAL_TIME ( 15, 49, 12.00000000000000000, #93 ) ;
#117 = LOCAL_TIME ( 15, 49, 12.00000000000000000, #204 ) ;
#118 = PRODUCT_DEFINITION ( 'NEZNÁMÝ', '', #250, #209 ) ;
#119 = PERSON_AND_ORGANIZATION_ROLE ( 'design_supplier' ) ;
#120 = DIRECTION ( 'NONE',  ( -1.000000000000000000, 0.000000000000000000, 0.000000000000000000 ) ) ;
#121 = DIRECTION ( 'NONE',  ( 0.000000000000000000, 0.000000000000000000, 1.000000000000000000 ) ) ;
#122 = DIRECTION ( 'NONE',  ( 0.000000000000000000, 0.000000000000000000, 1.000000000000000000 ) ) ;
#123 = FACE_OUTER_BOUND ( 'NONE', #180, .T. ) ;
#124 = EDGE_CURVE ( 'NONE', #12, #161, #219, .T. ) ;
#125 = CARTESIAN_POINT ( 'NONE',  ( 0.000000000000000000, 0.000000000000000000, 0.000000000000000000 ) ) ;
#126 = DIRECTION ( 'NONE',  ( 1.000000000000000000, 0.000000000000000000, 0.000000000000000000 ) ) ;
#127 = EDGE_LOOP ( 'NONE', ( #147, #68 ) ) ;
#128 = VECTOR ( 'NONE', #94, 1000.000000000000000 ) ;
#129 = CARTESIAN_POINT ( 'NONE',  ( 0.5000000000000000000, 6.123233995736766036E-17, 100.0000000000000000 ) ) ;
#130 = LINE ( 'NONE', #18, #244 ) ;
#131 = ORIENTED_EDGE ( 'NONE', *, *, #251, .T. ) ;
#132 = CC_DESIGN_APPROVAL ( #186, ( #118 ) ) ;
#133 = CC_DESIGN_APPROVAL ( #30, ( #250 ) ) ;
#134 = SECURITY_CLASSIFICATION_LEVEL ( 'unclassified' ) ;
#135 = SHAPE_DEFINITION_REPRESENTATION ( #1, #48 ) ;
#136 = DATE_AND_TIME ( #226, #137 ) ;
#137 = LOCAL_TIME ( 15, 49, 12.00000000000000000, #183 ) ;
#138 = CC_DESIGN_PERSON_AND_ORGANIZATION_ASSIGNMENT ( #6, #119, ( #250 ) ) ;
#139 = DIRECTION ( 'NONE',  ( -0.000000000000000000, -0.000000000000000000, -1.000000000000000000 ) ) ;
#140 = DIRECTION ( 'NONE',  ( -0.000000000000000000, -0.000000000000000000, -1.000000000000000000 ) ) ;
#141 = EDGE_CURVE ( 'NONE', #191, #224, #56, .T. ) ;
#142 = DIRECTION ( 'NONE',  ( 1.000000000000000000, 0.000000000000000000, 0.000000000000000000 ) ) ;
#143 = EDGE_LOOP ( 'NONE', ( #49, #21 ) ) ;
#144 = DIRECTION ( 'NONE',  ( 1.000000000000000000, 0.000000000000000000, 0.000000000000000000 ) ) ;
#145 = AXIS2_PLACEMENT_3D ( 'NONE', #194, #211, #157 ) ;
#146 = CC_DESIGN_PERSON_AND_ORGANIZATION_ASSIGNMENT ( #29, #92, ( #19 ) ) ;
#147 = ORIENTED_EDGE ( 'NONE', *, *, #91, .F. ) ;
#148 = AXIS2_PLACEMENT_3D ( 'NONE', #74, #230, #28 ) ;
#149 = ORIENTED_EDGE ( 'NONE', *, *, #110, .T. ) ;
#150 = COORDINATED_UNIVERSAL_TIME_OFFSET ( 1, 0, .AHEAD. ) ;
#151 = EDGE_LOOP ( 'NONE', ( #45, #67, #26, #178 ) ) ;
#152 = DATE_AND_TIME ( #115, #116 ) ;
#153 = APPROVAL_PERSON_ORGANIZATION ( #201, #8, #166 ) ;
#154 = APPROVAL_ROLE ( '' ) ;
#155 = VECTOR ( 'NONE', #85, 1000.000000000000000 ) ;
#156 = CARTESIAN_POINT ( 'NONE',  ( 0.000000000000000000, 0.000000000000000000, 100.0000000000000000 ) ) ;
#157 = DIRECTION ( 'NONE',  ( 1.000000000000000000, 0.000000000000000000, -0.000000000000000000 ) ) ;
#158 = ORIENTED_EDGE ( 'NONE', *, *, #78, .F. ) ;
#159 = EDGE_CURVE ( 'NONE', #224, #191, #206, .T. ) ;
#160 = DIRECTION ( 'NONE',  ( 0.000000000000000000, 0.000000000000000000, 1.000000000000000000 ) ) ;
#161 = VERTEX_POINT ( 'NONE', #235 ) ;
#162 = ORIENTED_EDGE ( 'NONE', *, *, #124, .F. ) ;
#163 = APPLICATION_PROTOCOL_DEFINITION ( 'international standard', 'config_control_design', 1994, #5 ) ;
#164 = EDGE_LOOP ( 'NONE', ( #234, #42, #172, #131 ) ) ;
#165 = ADVANCED_FACE ( 'NONE', ( #38 ), #59, .T. ) ;
#166 = APPROVAL_ROLE ( '' ) ;
#167 = ADVANCED_FACE ( 'NONE', ( #101 ), #252, .T. ) ;
#168 = APPROVAL_PERSON_ORGANIZATION ( #86, #186, #83 ) ;
#169 = PLANE ( 'NONE',  #203 ) ;
#170 = ADVANCED_FACE ( 'NONE', ( #123 ), #210, .F. ) ;
#171 = DIRECTION ( 'NONE',  ( -0.000000000000000000, -0.000000000000000000, -1.000000000000000000 ) ) ;
#172 = ORIENTED_EDGE ( 'NONE', *, *, #41, .T. ) ;
#173 = CIRCLE ( 'NONE', #20, 1.250000000000000000 ) ;
#174 = DIRECTION ( 'NONE',  ( -1.000000000000000000, 0.000000000000000000, 0.000000000000000000 ) ) ;
#175 = EDGE_LOOP ( 'NONE', ( #158, #3, #149, #220 ) ) ;
#176 = DIRECTION ( 'NONE',  ( 0.000000000000000000, 0.000000000000000000, 1.000000000000000000 ) ) ;
#177 = ORIENTED_EDGE ( 'NONE', *, *, #34, .F. ) ;
#178 = ORIENTED_EDGE ( 'NONE', *, *, #41, .F. ) ;
#179 = VERTEX_POINT ( 'NONE', #97 ) ;
#180 = EDGE_LOOP ( 'NONE', ( #60, #177 ) ) ;
#181 = PERSON_AND_ORGANIZATION ( #7, #214 ) ;
#182 = ADVANCED_FACE ( 'NONE', ( #15 ), #33, .T. ) ;
#183 = COORDINATED_UNIVERSAL_TIME_OFFSET ( 1, 0, .AHEAD. ) ;
#184 = CALENDAR_DATE ( 2023, 31, 1 ) ;
#185 = AXIS2_PLACEMENT_3D ( 'NONE', #254, #255, #112 ) ;
#186 = APPROVAL ( #69, 'NEURÈENÝ' ) ;
#187 = ADVANCED_FACE ( 'NONE', ( #35 ), #169, .T. ) ;
#188 = CLOSED_SHELL ( 'NONE', ( #165, #182, #228, #241, #170, #167, #187 ) ) ;
#189 = CARTESIAN_POINT ( 'NONE',  ( 0.000000000000000000, 0.000000000000000000, 1.199999999999999956 ) ) ;
#190 = CARTESIAN_POINT ( 'NONE',  ( 1.250000000000000000, 1.530808498934191571E-16, 1.199999999999999956 ) ) ;
#191 = VERTEX_POINT ( 'NONE', #190 ) ;
#192 =( LENGTH_UNIT ( ) NAMED_UNIT ( * ) SI_UNIT ( .MILLI., .METRE. ) );
#193 = CC_DESIGN_PERSON_AND_ORGANIZATION_ASSIGNMENT ( #73, #51, ( #250 ) ) ;
#194 = CARTESIAN_POINT ( 'NONE',  ( 0.000000000000000000, 0.000000000000000000, 0.000000000000000000 ) ) ;
#195 = DIRECTION ( 'NONE',  ( 1.000000000000000000, 0.000000000000000000, 0.000000000000000000 ) ) ;
#196 = CARTESIAN_POINT ( 'NONE',  ( 0.000000000000000000, 0.000000000000000000, 0.000000000000000000 ) ) ;
#197 = VERTEX_POINT ( 'NONE', #104 ) ;
#198 = CIRCLE ( 'NONE', #39, 0.5000000000000000000 ) ;
#199 = CARTESIAN_POINT ( 'NONE',  ( 0.000000000000000000, 0.000000000000000000, 0.000000000000000000 ) ) ;
#200 = APPLICATION_PROTOCOL_DEFINITION ( 'international standard', 'config_control_design', 1994, #22 ) ;
#201 = PERSON_AND_ORGANIZATION ( #7, #214 ) ;
#202 = ORIENTED_EDGE ( 'NONE', *, *, #78, .T. ) ;
#203 = AXIS2_PLACEMENT_3D ( 'NONE', #98, #121, #237 ) ;
#204 = COORDINATED_UNIVERSAL_TIME_OFFSET ( 1, 0, .AHEAD. ) ;
#205 = DATE_AND_TIME ( #88, #216 ) ;
#206 = CIRCLE ( 'NONE', #102, 1.250000000000000000 ) ;
#207 = APPROVAL_STATUS ( 'not_yet_approved' ) ;
#208 = LINE ( 'NONE', #246, #128 ) ;
#209 = DESIGN_CONTEXT ( 'detailed design', #22, 'design' ) ;
#210 = PLANE ( 'NONE',  #145 ) ;
#211 = DIRECTION ( 'NONE',  ( 0.000000000000000000, 0.000000000000000000, 1.000000000000000000 ) ) ;
#212 = DIRECTION ( 'NONE',  ( 0.000000000000000000, 0.000000000000000000, 1.000000000000000000 ) ) ;
#213 =( NAMED_UNIT ( * ) PLANE_ANGLE_UNIT ( ) SI_UNIT ( $, .RADIAN. ) );
#214 = ORGANIZATION ( 'NEURÈENÝ', 'NEURÈENÝ', '' ) ;
#215 = FACE_OUTER_BOUND ( 'NONE', #143, .T. ) ;
#216 = LOCAL_TIME ( 15, 49, 12.00000000000000000, #4 ) ;
#217 = CIRCLE ( 'NONE', #240, 1.250000000000000000 ) ;
#218 = EDGE_CURVE ( 'NONE', #107, #87, #95, .T. ) ;
#219 = CIRCLE ( 'NONE', #148, 0.5000000000000000000 ) ;
#220 = ORIENTED_EDGE ( 'NONE', *, *, #91, .T. ) ;
#221 = AXIS2_PLACEMENT_3D ( 'NONE', #81, #212, #37 ) ;
#222 = CARTESIAN_POINT ( 'NONE',  ( 1.250000000000000000, 1.530808498934191571E-16, 1.199999999999999956 ) ) ;
#223 = MECHANICAL_CONTEXT ( 'NONE', #5, 'mechanical' ) ;
#224 = VERTEX_POINT ( 'NONE', #11 ) ;
#225 = APPROVAL_DATE_TIME ( #136, #30 ) ;
#226 = CALENDAR_DATE ( 2023, 31, 1 ) ;
#227 = CARTESIAN_POINT ( 'NONE',  ( 0.5000000000000000000, 6.123233995736766036E-17, 1.199999999999999956 ) ) ;
#228 = ADVANCED_FACE ( 'NONE', ( #64 ), #233, .T. ) ;
#229 = CC_DESIGN_SECURITY_CLASSIFICATION ( #19, ( #250 ) ) ;
#230 = DIRECTION ( 'NONE',  ( 0.000000000000000000, 0.000000000000000000, 1.000000000000000000 ) ) ;
#231 = CC_DESIGN_DATE_AND_TIME_ASSIGNMENT ( #205, #90, ( #19 ) ) ;
#232 = CARTESIAN_POINT ( 'NONE',  ( 0.000000000000000000, 0.000000000000000000, 1.199999999999999956 ) ) ;
#233 = CYLINDRICAL_SURFACE ( 'NONE', #113, 1.250000000000000000 ) ;
#234 = ORIENTED_EDGE ( 'NONE', *, *, #76, .F. ) ;
#235 = CARTESIAN_POINT ( 'NONE',  ( -0.5000000000000000000, 0.000000000000000000, 100.0000000000000000 ) ) ;
#236 = CARTESIAN_POINT ( 'NONE',  ( 0.000000000000000000, 0.000000000000000000, 1.199999999999999956 ) ) ;
#237 = DIRECTION ( 'NONE',  ( 1.000000000000000000, 0.000000000000000000, -0.000000000000000000 ) ) ;
#238 = LOCAL_TIME ( 15, 49, 12.00000000000000000, #150 ) ;
#239 = DIRECTION ( 'NONE',  ( -0.000000000000000000, -0.000000000000000000, -1.000000000000000000 ) ) ;
#240 = AXIS2_PLACEMENT_3D ( 'NONE', #125, #122, #195 ) ;
#241 = ADVANCED_FACE ( 'NONE', ( #40, #215 ), #80, .T. ) ;
#242 =( NAMED_UNIT ( * ) SI_UNIT ( $, .STERADIAN. ) SOLID_ANGLE_UNIT ( ) );
#243 = CARTESIAN_POINT ( 'NONE',  ( -0.5000000000000000000, 0.000000000000000000, 1.199999999999999956 ) ) ;
#244 = VECTOR ( 'NONE', #89, 1000.000000000000000 ) ;
#245 = LINE ( 'NONE', #222, #61 ) ;
#246 = CARTESIAN_POINT ( 'NONE',  ( -0.5000000000000000000, 0.000000000000000000, 100.0000000000000000 ) ) ;
#247 = DIRECTION ( 'NONE',  ( -1.000000000000000000, 0.000000000000000000, 0.000000000000000000 ) ) ;
#248 = MANIFOLD_SOLID_BREP ( 'Pøidat vysunutím3', #188 ) ;
#249 = DIRECTION ( 'NONE',  ( -0.000000000000000000, -0.000000000000000000, -1.000000000000000000 ) ) ;
#250 = PRODUCT_DEFINITION_FORMATION_WITH_SPECIFIED_SOURCE ( 'LIBOVOLNÝ', '', #57, .NOT_KNOWN. ) ;
#251 = EDGE_CURVE ( 'NONE', #197, #179, #217, .T. ) ;
#252 = CYLINDRICAL_SURFACE ( 'NONE', #77, 0.5000000000000000000 ) ;
#253 = DIRECTION ( 'NONE',  ( 0.000000000000000000, 0.000000000000000000, 1.000000000000000000 ) ) ;
#254 = CARTESIAN_POINT ( 'NONE',  ( 0.000000000000000000, 0.000000000000000000, 100.0000000000000000 ) ) ;
#255 = DIRECTION ( 'NONE',  ( 0.000000000000000000, 0.000000000000000000, 1.000000000000000000 ) ) ;
ENDSEC;
END-ISO-10303-21;
