ISO-10303-21;
HEADER;
FILE_DESCRIPTION (( 'STEP AP203' ),
    '1' );
FILE_NAME ('4ebf.STEP',
    '2023-02-13T15:34:57',
    ( '' ),
    ( '' ),
    'SwSTEP 2.0',
    'SolidWorks 2019',
    '' );
FILE_SCHEMA (( 'CONFIG_CONTROL_DESIGN' ));
ENDSEC;

DATA;
#1 = LOCAL_TIME ( 16, 34, 57.00000000000000000, #249 ) ;
#2 = PERSON_AND_ORGANIZATION ( #148, #222 ) ;
#3 = CARTESIAN_POINT ( 'NONE',  ( 1.750000000000000000, 2.143131898507867804E-16, 125.0000000000000000 ) ) ;
#4 = CARTESIAN_POINT ( 'NONE',  ( -3.500000000000000444, 0.000000000000000000, 0.000000000000000000 ) ) ;
#5 = APPROVAL ( #56, 'NEURÈENÝ' ) ;
#6 = CYLINDRICAL_SURFACE ( 'NONE', #76, 1.750000000000000000 ) ;
#7 = EDGE_LOOP ( 'NONE', ( #126, #65, #69, #13 ) ) ;
#8 = CIRCLE ( 'NONE', #228, 1.750000000000000000 ) ;
#9 = CARTESIAN_POINT ( 'NONE',  ( 1.750000000000000000, 2.143131898507867804E-16, 3.000000000000000000 ) ) ;
#10 = ADVANCED_FACE ( 'NONE', ( #137 ), #20, .T. ) ;
#11 = PRODUCT_DEFINITION_SHAPE ( 'NONE', 'NONE',  #208 ) ;
#12 = FACE_OUTER_BOUND ( 'NONE', #31, .T. ) ;
#13 = ORIENTED_EDGE ( 'NONE', *, *, #51, .F. ) ;
#14 = AXIS2_PLACEMENT_3D ( 'NONE', #109, #196, #255 ) ;
#15 = PERSON_AND_ORGANIZATION ( #148, #222 ) ;
#16 = PERSON_AND_ORGANIZATION_ROLE ( 'creator' ) ;
#17 = PERSON_AND_ORGANIZATION ( #148, #222 ) ;
#18 = PERSON_AND_ORGANIZATION ( #148, #222 ) ;
#19 = LOCAL_TIME ( 16, 34, 57.00000000000000000, #74 ) ;
#20 = CYLINDRICAL_SURFACE ( 'NONE', #14, 3.500000000000000444 ) ;
#21 = DATE_AND_TIME ( #25, #173 ) ;
#22 = CC_DESIGN_PERSON_AND_ORGANIZATION_ASSIGNMENT ( #15, #16, ( #208 ) ) ;
#23 = DIRECTION ( 'NONE',  ( 0.000000000000000000, 0.000000000000000000, 1.000000000000000000 ) ) ;
#24 = APPROVAL ( #118, 'NEURÈENÝ' ) ;
#25 = CALENDAR_DATE ( 2023, 13, 2 ) ;
#26 = AXIS2_PLACEMENT_3D ( 'NONE', #68, #53, #30 ) ;
#27 = PRODUCT ( '4ebf', '4ebf', '', ( #110 ) ) ;
#28 = AXIS2_PLACEMENT_3D ( 'NONE', #220, #43, #223 ) ;
#29 = EDGE_CURVE ( 'NONE', #153, #85, #145, .T. ) ;
#30 = DIRECTION ( 'NONE',  ( 1.000000000000000000, 0.000000000000000000, 0.000000000000000000 ) ) ;
#31 = EDGE_LOOP ( 'NONE', ( #234, #104, #167, #210 ) ) ;
#32 = DIRECTION ( 'NONE',  ( -0.000000000000000000, -0.000000000000000000, -1.000000000000000000 ) ) ;
#33 = EDGE_CURVE ( 'NONE', #101, #147, #130, .T. ) ;
#34 = VERTEX_POINT ( 'NONE', #92 ) ;
#35 = CALENDAR_DATE ( 2023, 13, 2 ) ;
#36 = AXIS2_PLACEMENT_3D ( 'NONE', #40, #116, #174 ) ;
#37 = CIRCLE ( 'NONE', #122, 3.500000000000000444 ) ;
#38 = DIRECTION ( 'NONE',  ( 0.000000000000000000, 0.000000000000000000, 1.000000000000000000 ) ) ;
#39 = MANIFOLD_SOLID_BREP ( 'Pøidat vysunutím3', #253 ) ;
#40 = CARTESIAN_POINT ( 'NONE',  ( 0.000000000000000000, 0.000000000000000000, 0.000000000000000000 ) ) ;
#41 = CC_DESIGN_DATE_AND_TIME_ASSIGNMENT ( #241, #61, ( #211 ) ) ;
#42 = AXIS2_PLACEMENT_3D ( 'NONE', #216, #38, #111 ) ;
#43 = DIRECTION ( 'NONE',  ( -0.000000000000000000, -0.000000000000000000, -1.000000000000000000 ) ) ;
#44 = LINE ( 'NONE', #141, #140 ) ;
#45 = EDGE_CURVE ( 'NONE', #153, #107, #250, .T. ) ;
#46 = DESIGN_CONTEXT ( 'detailed design', #226, 'design' ) ;
#47 = DIRECTION ( 'NONE',  ( -0.000000000000000000, -0.000000000000000000, -1.000000000000000000 ) ) ;
#48 =( LENGTH_UNIT ( ) NAMED_UNIT ( * ) SI_UNIT ( .MILLI., .METRE. ) );
#49 = ORIENTED_EDGE ( 'NONE', *, *, #136, .T. ) ;
#50 = ORIENTED_EDGE ( 'NONE', *, *, #194, .T. ) ;
#51 = EDGE_CURVE ( 'NONE', #34, #147, #154, .T. ) ;
#52 = ORIENTED_EDGE ( 'NONE', *, *, #194, .F. ) ;
#53 = DIRECTION ( 'NONE',  ( 0.000000000000000000, 0.000000000000000000, 1.000000000000000000 ) ) ;
#54 = CC_DESIGN_SECURITY_CLASSIFICATION ( #211, ( #102 ) ) ;
#55 = APPROVAL_ROLE ( '' ) ;
#56 = APPROVAL_STATUS ( 'not_yet_approved' ) ;
#57 = LINE ( 'NONE', #177, #198 ) ;
#58 = EDGE_CURVE ( 'NONE', #81, #101, #57, .T. ) ;
#59 = APPROVAL_DATE_TIME ( #180, #5 ) ;
#60 = DIRECTION ( 'NONE',  ( 1.000000000000000000, 0.000000000000000000, 0.000000000000000000 ) ) ;
#61 = DATE_TIME_ROLE ( 'classification_date' ) ;
#62 = FACE_OUTER_BOUND ( 'NONE', #115, .T. ) ;
#63 = EDGE_CURVE ( 'NONE', #147, #101, #80, .T. ) ;
#64 = DIRECTION ( 'NONE',  ( 1.000000000000000000, 0.000000000000000000, 0.000000000000000000 ) ) ;
#65 = ORIENTED_EDGE ( 'NONE', *, *, #58, .T. ) ;
#66 = CC_DESIGN_PERSON_AND_ORGANIZATION_ASSIGNMENT ( #155, #218, ( #102 ) ) ;
#67 = EDGE_LOOP ( 'NONE', ( #188, #214 ) ) ;
#68 = CARTESIAN_POINT ( 'NONE',  ( 0.000000000000000000, 0.000000000000000000, 3.000000000000000000 ) ) ;
#69 = ORIENTED_EDGE ( 'NONE', *, *, #33, .T. ) ;
#70 = APPROVAL_DATE_TIME ( #72, #166 ) ;
#71 = CARTESIAN_POINT ( 'NONE',  ( -1.750000000000000000, 0.000000000000000000, 125.0000000000000000 ) ) ;
#72 = DATE_AND_TIME ( #254, #1 ) ;
#73 = DATE_AND_TIME ( #178, #120 ) ;
#74 = COORDINATED_UNIVERSAL_TIME_OFFSET ( 1, 0, .AHEAD. ) ;
#75 = CARTESIAN_POINT ( 'NONE',  ( 0.000000000000000000, 0.000000000000000000, 0.000000000000000000 ) ) ;
#76 = AXIS2_PLACEMENT_3D ( 'NONE', #212, #32, #105 ) ;
#77 = DIRECTION ( 'NONE',  ( 0.000000000000000000, 0.000000000000000000, 1.000000000000000000 ) ) ;
#78 = VECTOR ( 'NONE', #199, 1000.000000000000000 ) ;
#79 = CARTESIAN_POINT ( 'NONE',  ( 0.000000000000000000, 0.000000000000000000, 3.000000000000000000 ) ) ;
#80 = CIRCLE ( 'NONE', #42, 3.500000000000000444 ) ;
#81 = VERTEX_POINT ( 'NONE', #251 ) ;
#82 = CC_DESIGN_APPROVAL ( #5, ( #208 ) ) ;
#83 =( NAMED_UNIT ( * ) PLANE_ANGLE_UNIT ( ) SI_UNIT ( $, .RADIAN. ) );
#84 = ADVANCED_FACE ( 'NONE', ( #113 ), #124, .F. ) ;
#85 = VERTEX_POINT ( 'NONE', #3 ) ;
#86 = AXIS2_PLACEMENT_3D ( 'NONE', #100, #213, #131 ) ;
#87 = APPROVAL_STATUS ( 'not_yet_approved' ) ;
#88 = ORIENTED_EDGE ( 'NONE', *, *, #58, .F. ) ;
#89 = PERSON_AND_ORGANIZATION ( #148, #222 ) ;
#90 = AXIS2_PLACEMENT_3D ( 'NONE', #79, #23, #96 ) ;
#91 = COORDINATED_UNIVERSAL_TIME_OFFSET ( 1, 0, .AHEAD. ) ;
#92 = CARTESIAN_POINT ( 'NONE',  ( -3.500000000000000444, 0.000000000000000000, 3.000000000000000000 ) ) ;
#93 = CC_DESIGN_PERSON_AND_ORGANIZATION_ASSIGNMENT ( #17, #157, ( #27 ) ) ;
#94 = PERSON_AND_ORGANIZATION_ROLE ( 'classification_officer' ) ;
#95 = SHAPE_DEFINITION_REPRESENTATION ( #11, #206 ) ;
#96 = DIRECTION ( 'NONE',  ( 1.000000000000000000, 0.000000000000000000, -0.000000000000000000 ) ) ;
#97 = APPROVAL_DATE_TIME ( #21, #24 ) ;
#98 = FACE_OUTER_BOUND ( 'NONE', #67, .T. ) ;
#99 = APPROVAL_PERSON_ORGANIZATION ( #156, #166, #236 ) ;
#100 = CARTESIAN_POINT ( 'NONE',  ( 0.000000000000000000, 0.000000000000000000, 3.000000000000000000 ) ) ;
#101 = VERTEX_POINT ( 'NONE', #143 ) ;
#102 = PRODUCT_DEFINITION_FORMATION_WITH_SPECIFIED_SOURCE ( 'LIBOVOLNÝ', '', #27, .NOT_KNOWN. ) ;
#103 = FACE_OUTER_BOUND ( 'NONE', #106, .T. ) ;
#104 = ORIENTED_EDGE ( 'NONE', *, *, #29, .F. ) ;
#105 = DIRECTION ( 'NONE',  ( -1.000000000000000000, 0.000000000000000000, 0.000000000000000000 ) ) ;
#106 = EDGE_LOOP ( 'NONE', ( #169, #50 ) ) ;
#107 = VERTEX_POINT ( 'NONE', #158 ) ;
#108 =( GEOMETRIC_REPRESENTATION_CONTEXT ( 3 ) GLOBAL_UNCERTAINTY_ASSIGNED_CONTEXT ( ( #240 ) ) GLOBAL_UNIT_ASSIGNED_CONTEXT ( ( #48, #83, #189 ) ) REPRESENTATION_CONTEXT ( 'NONE', 'WORKASPACE' ) );
#109 = CARTESIAN_POINT ( 'NONE',  ( 0.000000000000000000, 0.000000000000000000, 3.000000000000000000 ) ) ;
#110 = MECHANICAL_CONTEXT ( 'NONE', #201, 'mechanical' ) ;
#111 = DIRECTION ( 'NONE',  ( 1.000000000000000000, 0.000000000000000000, 0.000000000000000000 ) ) ;
#112 = DIRECTION ( 'NONE',  ( 0.000000000000000000, 0.000000000000000000, 1.000000000000000000 ) ) ;
#113 = FACE_OUTER_BOUND ( 'NONE', #227, .T. ) ;
#114 = PERSON_AND_ORGANIZATION ( #148, #222 ) ;
#115 = EDGE_LOOP ( 'NONE', ( #88, #225, #205, #207 ) ) ;
#116 = DIRECTION ( 'NONE',  ( 0.000000000000000000, 0.000000000000000000, 1.000000000000000000 ) ) ;
#117 = AXIS2_PLACEMENT_3D ( 'NONE', #245, #209, #186 ) ;
#118 = APPROVAL_STATUS ( 'not_yet_approved' ) ;
#119 = PLANE ( 'NONE',  #90 ) ;
#120 = LOCAL_TIME ( 16, 34, 57.00000000000000000, #91 ) ;
#121 = FACE_BOUND ( 'NONE', #185, .T. ) ;
#122 = AXIS2_PLACEMENT_3D ( 'NONE', #160, #183, #64 ) ;
#123 = CC_DESIGN_DATE_AND_TIME_ASSIGNMENT ( #73, #175, ( #208 ) ) ;
#124 = PLANE ( 'NONE',  #202 ) ;
#125 = DIRECTION ( 'NONE',  ( -1.000000000000000000, 0.000000000000000000, 0.000000000000000000 ) ) ;
#126 = ORIENTED_EDGE ( 'NONE', *, *, #221, .F. ) ;
#127 = ADVANCED_FACE ( 'NONE', ( #62 ), #239, .T. ) ;
#128 = FACE_OUTER_BOUND ( 'NONE', #132, .T. ) ;
#129 = ORIENTED_EDGE ( 'NONE', *, *, #235, .F. ) ;
#130 = CIRCLE ( 'NONE', #36, 3.500000000000000444 ) ;
#131 = DIRECTION ( 'NONE',  ( 1.000000000000000000, 0.000000000000000000, 0.000000000000000000 ) ) ;
#132 = EDGE_LOOP ( 'NONE', ( #52, #49, #151, #190 ) ) ;
#133 = APPLICATION_PROTOCOL_DEFINITION ( 'international standard', 'config_control_design', 1994, #226 ) ;
#134 = PERSON_AND_ORGANIZATION_ROLE ( 'design_supplier' ) ;
#135 = DIRECTION ( 'NONE',  ( -0.000000000000000000, -0.000000000000000000, -1.000000000000000000 ) ) ;
#136 = EDGE_CURVE ( 'NONE', #85, #244, #44, .T. ) ;
#137 = FACE_OUTER_BOUND ( 'NONE', #7, .T. ) ;
#138 = AXIS2_PLACEMENT_3D ( 'NONE', #246, #150, #125 ) ;
#139 = ADVANCED_FACE ( 'NONE', ( #121, #98 ), #119, .T. ) ;
#140 = VECTOR ( 'NONE', #47, 1000.000000000000000 ) ;
#141 = CARTESIAN_POINT ( 'NONE',  ( 1.750000000000000000, 2.143131898507867804E-16, 125.0000000000000000 ) ) ;
#142 = COORDINATED_UNIVERSAL_TIME_OFFSET ( 1, 0, .AHEAD. ) ;
#143 = CARTESIAN_POINT ( 'NONE',  ( 3.500000000000000444, 4.286263797015737088E-16, 0.000000000000000000 ) ) ;
#144 = PRODUCT_RELATED_PRODUCT_CATEGORY ( 'detail', '', ( #27 ) ) ;
#145 = CIRCLE ( 'NONE', #181, 1.750000000000000000 ) ;
#146 = AXIS2_PLACEMENT_3D ( 'NONE', #233, #112, #195 ) ;
#147 = VERTEX_POINT ( 'NONE', #4 ) ;
#148 = PERSON ( 'NEURÈENÝ', 'NEURÈENÝ', 'NEURÈENÝ', ('NEURÈENÝ'), ('NEURÈENÝ'), ('NEURÈENÝ') ) ;
#149 = EDGE_CURVE ( 'NONE', #34, #81, #37, .T. ) ;
#150 = DIRECTION ( 'NONE',  ( -0.000000000000000000, -0.000000000000000000, -1.000000000000000000 ) ) ;
#151 = ORIENTED_EDGE ( 'NONE', *, *, #235, .T. ) ;
#152 = DIRECTION ( 'NONE',  ( 1.000000000000000000, 0.000000000000000000, 0.000000000000000000 ) ) ;
#153 = VERTEX_POINT ( 'NONE', #184 ) ;
#154 = LINE ( 'NONE', #231, #78 ) ;
#155 = PERSON_AND_ORGANIZATION ( #148, #222 ) ;
#156 = PERSON_AND_ORGANIZATION ( #148, #222 ) ;
#157 = PERSON_AND_ORGANIZATION_ROLE ( 'design_owner' ) ;
#158 = CARTESIAN_POINT ( 'NONE',  ( -1.750000000000000000, 0.000000000000000000, 3.000000000000000000 ) ) ;
#159 = CC_DESIGN_PERSON_AND_ORGANIZATION_ASSIGNMENT ( #18, #94, ( #211 ) ) ;
#160 = CARTESIAN_POINT ( 'NONE',  ( 0.000000000000000000, 0.000000000000000000, 3.000000000000000000 ) ) ;
#161 = CIRCLE ( 'NONE', #26, 1.750000000000000000 ) ;
#162 = CC_DESIGN_APPROVAL ( #24, ( #211 ) ) ;
#163 = VECTOR ( 'NONE', #217, 1000.000000000000000 ) ;
#164 = CYLINDRICAL_SURFACE ( 'NONE', #138, 1.750000000000000000 ) ;
#165 = DIRECTION ( 'NONE',  ( 1.000000000000000000, 0.000000000000000000, 0.000000000000000000 ) ) ;
#166 = APPROVAL ( #87, 'NEURÈENÝ' ) ;
#167 = ORIENTED_EDGE ( 'NONE', *, *, #45, .T. ) ;
#168 = PLANE ( 'NONE',  #117 ) ;
#169 = ORIENTED_EDGE ( 'NONE', *, *, #29, .T. ) ;
#170 = ADVANCED_FACE ( 'NONE', ( #103 ), #168, .T. ) ;
#171 = ORIENTED_EDGE ( 'NONE', *, *, #204, .F. ) ;
#172 = CIRCLE ( 'NONE', #86, 1.750000000000000000 ) ;
#173 = LOCAL_TIME ( 16, 34, 57.00000000000000000, #142 ) ;
#174 = DIRECTION ( 'NONE',  ( 1.000000000000000000, 0.000000000000000000, 0.000000000000000000 ) ) ;
#175 = DATE_TIME_ROLE ( 'creation_date' ) ;
#176 = ADVANCED_FACE ( 'NONE', ( #12 ), #164, .T. ) ;
#177 = CARTESIAN_POINT ( 'NONE',  ( 3.500000000000000444, 4.286263797015737088E-16, 3.000000000000000000 ) ) ;
#178 = CALENDAR_DATE ( 2023, 13, 2 ) ;
#179 = CC_DESIGN_APPROVAL ( #166, ( #102 ) ) ;
#180 = DATE_AND_TIME ( #35, #200 ) ;
#181 = AXIS2_PLACEMENT_3D ( 'NONE', #238, #219, #60 ) ;
#182 = APPROVAL_ROLE ( '' ) ;
#183 = DIRECTION ( 'NONE',  ( 0.000000000000000000, 0.000000000000000000, 1.000000000000000000 ) ) ;
#184 = CARTESIAN_POINT ( 'NONE',  ( -1.750000000000000000, 0.000000000000000000, 125.0000000000000000 ) ) ;
#185 = EDGE_LOOP ( 'NONE', ( #171, #129 ) ) ;
#186 = DIRECTION ( 'NONE',  ( 1.000000000000000000, 0.000000000000000000, -0.000000000000000000 ) ) ;
#187 = CARTESIAN_POINT ( 'NONE',  ( 0.000000000000000000, 0.000000000000000000, 3.000000000000000000 ) ) ;
#188 = ORIENTED_EDGE ( 'NONE', *, *, #149, .T. ) ;
#189 =( NAMED_UNIT ( * ) SI_UNIT ( $, .STERADIAN. ) SOLID_ANGLE_UNIT ( ) );
#190 = ORIENTED_EDGE ( 'NONE', *, *, #45, .F. ) ;
#191 = AXIS2_PLACEMENT_3D ( 'NONE', #187, #247, #152 ) ;
#192 = COORDINATED_UNIVERSAL_TIME_OFFSET ( 1, 0, .AHEAD. ) ;
#193 = ORIENTED_EDGE ( 'NONE', *, *, #33, .F. ) ;
#194 = EDGE_CURVE ( 'NONE', #85, #153, #8, .T. ) ;
#195 = DIRECTION ( 'NONE',  ( 1.000000000000000000, 0.000000000000000000, 0.000000000000000000 ) ) ;
#196 = DIRECTION ( 'NONE',  ( -0.000000000000000000, -0.000000000000000000, -1.000000000000000000 ) ) ;
#197 = SECURITY_CLASSIFICATION_LEVEL ( 'unclassified' ) ;
#198 = VECTOR ( 'NONE', #135, 1000.000000000000000 ) ;
#199 = DIRECTION ( 'NONE',  ( -0.000000000000000000, -0.000000000000000000, -1.000000000000000000 ) ) ;
#200 = LOCAL_TIME ( 16, 34, 57.00000000000000000, #192 ) ;
#201 = APPLICATION_CONTEXT ( 'configuration controlled 3d designs of mechanical parts and assemblies' ) ;
#202 = AXIS2_PLACEMENT_3D ( 'NONE', #75, #77, #203 ) ;
#203 = DIRECTION ( 'NONE',  ( 1.000000000000000000, 0.000000000000000000, -0.000000000000000000 ) ) ;
#204 = EDGE_CURVE ( 'NONE', #107, #244, #161, .T. ) ;
#205 = ORIENTED_EDGE ( 'NONE', *, *, #51, .T. ) ;
#206 = ADVANCED_BREP_SHAPE_REPRESENTATION ( '4ebf', ( #39, #146 ), #108 ) ;
#207 = ORIENTED_EDGE ( 'NONE', *, *, #63, .T. ) ;
#208 = PRODUCT_DEFINITION ( 'NEZNÁMÝ', '', #102, #46 ) ;
#209 = DIRECTION ( 'NONE',  ( 0.000000000000000000, 0.000000000000000000, 1.000000000000000000 ) ) ;
#210 = ORIENTED_EDGE ( 'NONE', *, *, #204, .T. ) ;
#211 = SECURITY_CLASSIFICATION ( '', '', #197 ) ;
#212 = CARTESIAN_POINT ( 'NONE',  ( 0.000000000000000000, 0.000000000000000000, 125.0000000000000000 ) ) ;
#213 = DIRECTION ( 'NONE',  ( 0.000000000000000000, 0.000000000000000000, 1.000000000000000000 ) ) ;
#214 = ORIENTED_EDGE ( 'NONE', *, *, #221, .T. ) ;
#215 = ADVANCED_FACE ( 'NONE', ( #128 ), #6, .T. ) ;
#216 = CARTESIAN_POINT ( 'NONE',  ( 0.000000000000000000, 0.000000000000000000, 0.000000000000000000 ) ) ;
#217 = DIRECTION ( 'NONE',  ( -0.000000000000000000, -0.000000000000000000, -1.000000000000000000 ) ) ;
#218 = PERSON_AND_ORGANIZATION_ROLE ( 'creator' ) ;
#219 = DIRECTION ( 'NONE',  ( 0.000000000000000000, 0.000000000000000000, 1.000000000000000000 ) ) ;
#220 = CARTESIAN_POINT ( 'NONE',  ( 0.000000000000000000, 0.000000000000000000, 3.000000000000000000 ) ) ;
#221 = EDGE_CURVE ( 'NONE', #81, #34, #243, .T. ) ;
#222 = ORGANIZATION ( 'NEURÈENÝ', 'NEURÈENÝ', '' ) ;
#223 = DIRECTION ( 'NONE',  ( -1.000000000000000000, 0.000000000000000000, 0.000000000000000000 ) ) ;
#224 = ORIENTED_EDGE ( 'NONE', *, *, #63, .F. ) ;
#225 = ORIENTED_EDGE ( 'NONE', *, *, #149, .F. ) ;
#226 = APPLICATION_CONTEXT ( 'configuration controlled 3d designs of mechanical parts and assemblies' ) ;
#227 = EDGE_LOOP ( 'NONE', ( #224, #193 ) ) ;
#228 = AXIS2_PLACEMENT_3D ( 'NONE', #242, #229, #165 ) ;
#229 = DIRECTION ( 'NONE',  ( 0.000000000000000000, 0.000000000000000000, 1.000000000000000000 ) ) ;
#230 = APPLICATION_PROTOCOL_DEFINITION ( 'international standard', 'config_control_design', 1994, #201 ) ;
#231 = CARTESIAN_POINT ( 'NONE',  ( -3.500000000000000444, 0.000000000000000000, 3.000000000000000000 ) ) ;
#232 = APPROVAL_PERSON_ORGANIZATION ( #89, #5, #55 ) ;
#233 = CARTESIAN_POINT ( 'NONE',  ( 0.000000000000000000, 0.000000000000000000, 0.000000000000000000 ) ) ;
#234 = ORIENTED_EDGE ( 'NONE', *, *, #136, .F. ) ;
#235 = EDGE_CURVE ( 'NONE', #244, #107, #172, .T. ) ;
#236 = APPROVAL_ROLE ( '' ) ;
#237 = CALENDAR_DATE ( 2023, 13, 2 ) ;
#238 = CARTESIAN_POINT ( 'NONE',  ( 0.000000000000000000, 0.000000000000000000, 125.0000000000000000 ) ) ;
#239 = CYLINDRICAL_SURFACE ( 'NONE', #28, 3.500000000000000444 ) ;
#240 = UNCERTAINTY_MEASURE_WITH_UNIT (LENGTH_MEASURE( 1.000000000000000082E-05 ), #48, 'distance_accuracy_value', 'NONE');
#241 = DATE_AND_TIME ( #237, #19 ) ;
#242 = CARTESIAN_POINT ( 'NONE',  ( 0.000000000000000000, 0.000000000000000000, 125.0000000000000000 ) ) ;
#243 = CIRCLE ( 'NONE', #191, 3.500000000000000444 ) ;
#244 = VERTEX_POINT ( 'NONE', #9 ) ;
#245 = CARTESIAN_POINT ( 'NONE',  ( 0.000000000000000000, 0.000000000000000000, 125.0000000000000000 ) ) ;
#246 = CARTESIAN_POINT ( 'NONE',  ( 0.000000000000000000, 0.000000000000000000, 125.0000000000000000 ) ) ;
#247 = DIRECTION ( 'NONE',  ( 0.000000000000000000, 0.000000000000000000, 1.000000000000000000 ) ) ;
#248 = APPROVAL_PERSON_ORGANIZATION ( #2, #24, #182 ) ;
#249 = COORDINATED_UNIVERSAL_TIME_OFFSET ( 1, 0, .AHEAD. ) ;
#250 = LINE ( 'NONE', #71, #163 ) ;
#251 = CARTESIAN_POINT ( 'NONE',  ( 3.500000000000000444, 4.286263797015737088E-16, 3.000000000000000000 ) ) ;
#252 = CC_DESIGN_PERSON_AND_ORGANIZATION_ASSIGNMENT ( #114, #134, ( #102 ) ) ;
#253 = CLOSED_SHELL ( 'NONE', ( #215, #10, #127, #139, #84, #176, #170 ) ) ;
#254 = CALENDAR_DATE ( 2023, 13, 2 ) ;
#255 = DIRECTION ( 'NONE',  ( -1.000000000000000000, 0.000000000000000000, 0.000000000000000000 ) ) ;
ENDSEC;
END-ISO-10303-21;
