ISO-10303-21;
HEADER;
FILE_DESCRIPTION (( 'STEP AP203' ),
    '1' );
FILE_NAME ('e707.STEP',
    '2023-02-13T07:52:32',
    ( '' ),
    ( '' ),
    'SwSTEP 2.0',
    'SolidWorks 2019',
    '' );
FILE_SCHEMA (( 'CONFIG_CONTROL_DESIGN' ));
ENDSEC;

DATA;
#1 = PERSON_AND_ORGANIZATION_ROLE ( 'creator' ) ;
#2 = AXIS2_PLACEMENT_3D ( 'NONE', #249, #244, #65 ) ;
#3 = CARTESIAN_POINT ( 'NONE',  ( -12.50000000000000000, 0.000000000000000000, 160.0000000000000000 ) ) ;
#4 = CARTESIAN_POINT ( 'NONE',  ( 0.000000000000000000, 0.000000000000000000, 160.0000000000000000 ) ) ;
#5 = CARTESIAN_POINT ( 'NONE',  ( 0.000000000000000000, 0.000000000000000000, 160.0000000000000000 ) ) ;
#6 = EDGE_CURVE ( 'NONE', #12, #36, #178, .T. ) ;
#7 = CIRCLE ( 'NONE', #51, 16.00000000000000000 ) ;
#8 = CC_DESIGN_PERSON_AND_ORGANIZATION_ASSIGNMENT ( #193, #167, ( #147 ) ) ;
#9 = AXIS2_PLACEMENT_3D ( 'NONE', #213, #116, #151 ) ;
#10 = DIRECTION ( 'NONE',  ( -1.000000000000000000, 0.000000000000000000, 0.000000000000000000 ) ) ;
#11 = PERSON_AND_ORGANIZATION ( #62, #102 ) ;
#12 = VERTEX_POINT ( 'NONE', #154 ) ;
#13 = ORIENTED_EDGE ( 'NONE', *, *, #31, .F. ) ;
#14 = VECTOR ( 'NONE', #231, 1000.000000000000000 ) ;
#15 = DATE_AND_TIME ( #73, #19 ) ;
#16 = VERTEX_POINT ( 'NONE', #112 ) ;
#17 = EDGE_CURVE ( 'NONE', #163, #30, #125, .T. ) ;
#18 = ORIENTED_EDGE ( 'NONE', *, *, #17, .F. ) ;
#19 = LOCAL_TIME ( 8, 52, 32.00000000000000000, #169 ) ;
#20 = CALENDAR_DATE ( 2023, 13, 2 ) ;
#21 = PERSON_AND_ORGANIZATION_ROLE ( 'design_owner' ) ;
#22 = APPLICATION_CONTEXT ( 'configuration controlled 3d designs of mechanical parts and assemblies' ) ;
#23 = CARTESIAN_POINT ( 'NONE',  ( 16.00000000000000000, 1.959434878635765131E-15, 0.000000000000000000 ) ) ;
#24 = FACE_OUTER_BOUND ( 'NONE', #247, .T. ) ;
#25 = DIRECTION ( 'NONE',  ( 1.000000000000000000, 0.000000000000000000, 0.000000000000000000 ) ) ;
#26 = ADVANCED_FACE ( 'NONE', ( #39 ), #136, .F. ) ;
#27 = DIRECTION ( 'NONE',  ( -1.000000000000000000, 0.000000000000000000, 0.000000000000000000 ) ) ;
#28 = DIRECTION ( 'NONE',  ( 0.000000000000000000, 0.000000000000000000, 1.000000000000000000 ) ) ;
#29 = AXIS2_PLACEMENT_3D ( 'NONE', #101, #180, #10 ) ;
#30 = VERTEX_POINT ( 'NONE', #23 ) ;
#31 = EDGE_CURVE ( 'NONE', #204, #252, #170, .T. ) ;
#32 = ORIENTED_EDGE ( 'NONE', *, *, #6, .T. ) ;
#33 = DATE_AND_TIME ( #254, #129 ) ;
#34 = ORIENTED_EDGE ( 'NONE', *, *, #92, .T. ) ;
#35 = DATE_AND_TIME ( #55, #42 ) ;
#36 = VERTEX_POINT ( 'NONE', #172 ) ;
#37 = APPROVAL ( #189, 'NEURÈENÝ' ) ;
#38 = DIRECTION ( 'NONE',  ( -0.000000000000000000, -0.000000000000000000, -1.000000000000000000 ) ) ;
#39 = FACE_OUTER_BOUND ( 'NONE', #223, .T. ) ;
#40 = APPLICATION_PROTOCOL_DEFINITION ( 'international standard', 'config_control_design', 1994, #22 ) ;
#41 = CARTESIAN_POINT ( 'NONE',  ( 0.000000000000000000, 0.000000000000000000, 160.0000000000000000 ) ) ;
#42 = LOCAL_TIME ( 8, 52, 32.00000000000000000, #228 ) ;
#43 = DIRECTION ( 'NONE',  ( 1.000000000000000000, 0.000000000000000000, -0.000000000000000000 ) ) ;
#44 = CARTESIAN_POINT ( 'NONE',  ( 0.000000000000000000, 0.000000000000000000, 10.00000000000000000 ) ) ;
#45 = CIRCLE ( 'NONE', #150, 12.50000000000000000 ) ;
#46 = DIRECTION ( 'NONE',  ( 0.000000000000000000, 0.000000000000000000, 1.000000000000000000 ) ) ;
#47 = PLANE ( 'NONE',  #95 ) ;
#48 = DIRECTION ( 'NONE',  ( 1.000000000000000000, 0.000000000000000000, 0.000000000000000000 ) ) ;
#49 = AXIS2_PLACEMENT_3D ( 'NONE', #67, #50, #143 ) ;
#50 = DIRECTION ( 'NONE',  ( 0.000000000000000000, 0.000000000000000000, 1.000000000000000000 ) ) ;
#51 = AXIS2_PLACEMENT_3D ( 'NONE', #201, #28, #25 ) ;
#52 = COORDINATED_UNIVERSAL_TIME_OFFSET ( 1, 0, .AHEAD. ) ;
#53 = APPROVAL_STATUS ( 'not_yet_approved' ) ;
#54 = ORIENTED_EDGE ( 'NONE', *, *, #111, .F. ) ;
#55 = CALENDAR_DATE ( 2023, 13, 2 ) ;
#56 = ORIENTED_EDGE ( 'NONE', *, *, #224, .F. ) ;
#57 = CYLINDRICAL_SURFACE ( 'NONE', #113, 12.50000000000000000 ) ;
#58 = EDGE_LOOP ( 'NONE', ( #56, #13, #71, #183 ) ) ;
#59 = PERSON_AND_ORGANIZATION_ROLE ( 'classification_officer' ) ;
#60 = EDGE_LOOP ( 'NONE', ( #188, #222, #146, #166 ) ) ;
#61 = CYLINDRICAL_SURFACE ( 'NONE', #162, 12.50000000000000000 ) ;
#62 = PERSON ( 'NEURÈENÝ', 'NEURÈENÝ', 'NEURÈENÝ', ('NEURÈENÝ'), ('NEURÈENÝ'), ('NEURÈENÝ') ) ;
#63 = FACE_OUTER_BOUND ( 'NONE', #187, .T. ) ;
#64 = LINE ( 'NONE', #141, #234 ) ;
#65 = DIRECTION ( 'NONE',  ( 1.000000000000000000, 0.000000000000000000, 0.000000000000000000 ) ) ;
#66 =( NAMED_UNIT ( * ) SI_UNIT ( $, .STERADIAN. ) SOLID_ANGLE_UNIT ( ) );
#67 = CARTESIAN_POINT ( 'NONE',  ( 0.000000000000000000, 0.000000000000000000, 10.00000000000000000 ) ) ;
#68 = ORIENTED_EDGE ( 'NONE', *, *, #119, .F. ) ;
#69 = AXIS2_PLACEMENT_3D ( 'NONE', #5, #78, #134 ) ;
#70 = APPROVAL_ROLE ( '' ) ;
#71 = ORIENTED_EDGE ( 'NONE', *, *, #215, .T. ) ;
#72 = DIRECTION ( 'NONE',  ( 1.000000000000000000, 0.000000000000000000, 0.000000000000000000 ) ) ;
#73 = CALENDAR_DATE ( 2023, 13, 2 ) ;
#74 = PRODUCT_RELATED_PRODUCT_CATEGORY ( 'detail', '', ( #157 ) ) ;
#75 = SECURITY_CLASSIFICATION_LEVEL ( 'unclassified' ) ;
#76 = AXIS2_PLACEMENT_3D ( 'NONE', #44, #216, #100 ) ;
#77 = DIRECTION ( 'NONE',  ( 1.000000000000000000, 0.000000000000000000, 0.000000000000000000 ) ) ;
#78 = DIRECTION ( 'NONE',  ( 0.000000000000000000, 0.000000000000000000, 1.000000000000000000 ) ) ;
#79 = AXIS2_PLACEMENT_3D ( 'NONE', #195, #209, #77 ) ;
#80 = CARTESIAN_POINT ( 'NONE',  ( 12.50000000000000000, 1.530808498934191521E-15, 10.00000000000000000 ) ) ;
#81 = CYLINDRICAL_SURFACE ( 'NONE', #76, 16.00000000000000000 ) ;
#82 = CLOSED_SHELL ( 'NONE', ( #175, #200, #117, #191, #26, #161, #208 ) ) ;
#83 = APPROVAL_PERSON_ORGANIZATION ( #93, #241, #70 ) ;
#84 = CARTESIAN_POINT ( 'NONE',  ( 0.000000000000000000, 0.000000000000000000, 10.00000000000000000 ) ) ;
#85 = LOCAL_TIME ( 8, 52, 32.00000000000000000, #115 ) ;
#86 = EDGE_LOOP ( 'NONE', ( #185, #68 ) ) ;
#87 = CARTESIAN_POINT ( 'NONE',  ( 16.00000000000000000, 1.959434878635765131E-15, 10.00000000000000000 ) ) ;
#88 = ORIENTED_EDGE ( 'NONE', *, *, #224, .T. ) ;
#89 = ORIENTED_EDGE ( 'NONE', *, *, #250, .T. ) ;
#90 = CALENDAR_DATE ( 2023, 13, 2 ) ;
#91 = APPROVAL_ROLE ( '' ) ;
#92 = EDGE_CURVE ( 'NONE', #36, #12, #159, .T. ) ;
#93 = PERSON_AND_ORGANIZATION ( #62, #102 ) ;
#94 = CC_DESIGN_DATE_AND_TIME_ASSIGNMENT ( #15, #253, ( #147 ) ) ;
#95 = AXIS2_PLACEMENT_3D ( 'NONE', #41, #242, #197 ) ;
#96 = DIRECTION ( 'NONE',  ( 0.000000000000000000, 0.000000000000000000, 1.000000000000000000 ) ) ;
#97 = DIRECTION ( 'NONE',  ( 0.000000000000000000, 0.000000000000000000, 1.000000000000000000 ) ) ;
#98 = DIRECTION ( 'NONE',  ( -0.000000000000000000, -0.000000000000000000, -1.000000000000000000 ) ) ;
#99 = ORIENTED_EDGE ( 'NONE', *, *, #6, .F. ) ;
#100 = DIRECTION ( 'NONE',  ( -1.000000000000000000, 0.000000000000000000, 0.000000000000000000 ) ) ;
#101 = CARTESIAN_POINT ( 'NONE',  ( 0.000000000000000000, 0.000000000000000000, 10.00000000000000000 ) ) ;
#102 = ORGANIZATION ( 'NEURÈENÝ', 'NEURÈENÝ', '' ) ;
#103 = CARTESIAN_POINT ( 'NONE',  ( 0.000000000000000000, 0.000000000000000000, 160.0000000000000000 ) ) ;
#104 =( GEOMETRIC_REPRESENTATION_CONTEXT ( 3 ) GLOBAL_UNCERTAINTY_ASSIGNED_CONTEXT ( ( #219 ) ) GLOBAL_UNIT_ASSIGNED_CONTEXT ( ( #131, #127, #66 ) ) REPRESENTATION_CONTEXT ( 'NONE', 'WORKASPACE' ) );
#105 = FACE_OUTER_BOUND ( 'NONE', #58, .T. ) ;
#106 = DIRECTION ( 'NONE',  ( 0.000000000000000000, 0.000000000000000000, 1.000000000000000000 ) ) ;
#107 = AXIS2_PLACEMENT_3D ( 'NONE', #202, #106, #182 ) ;
#108 = ORIENTED_EDGE ( 'NONE', *, *, #31, .T. ) ;
#109 = APPROVAL_ROLE ( '' ) ;
#110 = PERSON_AND_ORGANIZATION ( #62, #102 ) ;
#111 = EDGE_CURVE ( 'NONE', #30, #163, #7, .T. ) ;
#112 = CARTESIAN_POINT ( 'NONE',  ( -12.50000000000000000, 0.000000000000000000, 10.00000000000000000 ) ) ;
#113 = AXIS2_PLACEMENT_3D ( 'NONE', #135, #38, #27 ) ;
#114 = DATE_TIME_ROLE ( 'classification_date' ) ;
#115 = COORDINATED_UNIVERSAL_TIME_OFFSET ( 1, 0, .AHEAD. ) ;
#116 = DIRECTION ( 'NONE',  ( 0.000000000000000000, 0.000000000000000000, 1.000000000000000000 ) ) ;
#117 = ADVANCED_FACE ( 'NONE', ( #105 ), #246, .T. ) ;
#118 = PRODUCT_DEFINITION_FORMATION_WITH_SPECIFIED_SOURCE ( 'LIBOVOLNÝ', '', #157, .NOT_KNOWN. ) ;
#119 = EDGE_CURVE ( 'NONE', #164, #16, #45, .T. ) ;
#120 = DIRECTION ( 'NONE',  ( 0.000000000000000000, 0.000000000000000000, 1.000000000000000000 ) ) ;
#121 = CARTESIAN_POINT ( 'NONE',  ( 0.000000000000000000, 0.000000000000000000, 10.00000000000000000 ) ) ;
#122 = DIRECTION ( 'NONE',  ( -0.000000000000000000, -0.000000000000000000, -1.000000000000000000 ) ) ;
#123 = CC_DESIGN_PERSON_AND_ORGANIZATION_ASSIGNMENT ( #148, #59, ( #239 ) ) ;
#124 = FACE_OUTER_BOUND ( 'NONE', #160, .T. ) ;
#125 = CIRCLE ( 'NONE', #79, 16.00000000000000000 ) ;
#126 = CARTESIAN_POINT ( 'NONE',  ( -16.00000000000000000, 0.000000000000000000, 10.00000000000000000 ) ) ;
#127 =( NAMED_UNIT ( * ) PLANE_ANGLE_UNIT ( ) SI_UNIT ( $, .RADIAN. ) );
#128 = DESIGN_CONTEXT ( 'detailed design', #22, 'design' ) ;
#129 = LOCAL_TIME ( 8, 52, 32.00000000000000000, #52 ) ;
#130 = APPLICATION_PROTOCOL_DEFINITION ( 'international standard', 'config_control_design', 1994, #140 ) ;
#131 =( LENGTH_UNIT ( ) NAMED_UNIT ( * ) SI_UNIT ( .MILLI., .METRE. ) );
#132 = ORIENTED_EDGE ( 'NONE', *, *, #155, .T. ) ;
#133 = COORDINATED_UNIVERSAL_TIME_OFFSET ( 1, 0, .AHEAD. ) ;
#134 = DIRECTION ( 'NONE',  ( 1.000000000000000000, 0.000000000000000000, 0.000000000000000000 ) ) ;
#135 = CARTESIAN_POINT ( 'NONE',  ( 0.000000000000000000, 0.000000000000000000, 160.0000000000000000 ) ) ;
#136 = PLANE ( 'NONE',  #9 ) ;
#137 = ORIENTED_EDGE ( 'NONE', *, *, #111, .T. ) ;
#138 = FACE_BOUND ( 'NONE', #86, .T. ) ;
#139 = ADVANCED_BREP_SHAPE_REPRESENTATION ( 'e707', ( #177, #107 ), #104 ) ;
#140 = APPLICATION_CONTEXT ( 'configuration controlled 3d designs of mechanical parts and assemblies' ) ;
#141 = CARTESIAN_POINT ( 'NONE',  ( 12.50000000000000000, 1.530808498934191521E-15, 160.0000000000000000 ) ) ;
#142 = VECTOR ( 'NONE', #245, 1000.000000000000000 ) ;
#143 = DIRECTION ( 'NONE',  ( 1.000000000000000000, 0.000000000000000000, 0.000000000000000000 ) ) ;
#144 = CIRCLE ( 'NONE', #2, 16.00000000000000000 ) ;
#145 = CC_DESIGN_DATE_AND_TIME_ASSIGNMENT ( #35, #114, ( #239 ) ) ;
#146 = ORIENTED_EDGE ( 'NONE', *, *, #119, .T. ) ;
#147 = PRODUCT_DEFINITION ( 'NEZNÁMÝ', '', #118, #128 ) ;
#148 = PERSON_AND_ORGANIZATION ( #62, #102 ) ;
#149 = APPROVAL_DATE_TIME ( #33, #194 ) ;
#150 = AXIS2_PLACEMENT_3D ( 'NONE', #84, #96, #72 ) ;
#151 = DIRECTION ( 'NONE',  ( 1.000000000000000000, 0.000000000000000000, -0.000000000000000000 ) ) ;
#152 = DATE_AND_TIME ( #20, #221 ) ;
#153 = DIRECTION ( 'NONE',  ( -1.000000000000000000, 0.000000000000000000, 0.000000000000000000 ) ) ;
#154 = CARTESIAN_POINT ( 'NONE',  ( -12.50000000000000000, 0.000000000000000000, 160.0000000000000000 ) ) ;
#155 = EDGE_CURVE ( 'NONE', #12, #16, #171, .T. ) ;
#156 = AXIS2_PLACEMENT_3D ( 'NONE', #214, #120, #43 ) ;
#157 = PRODUCT ( 'e707', 'e707', '', ( #203 ) ) ;
#158 = CARTESIAN_POINT ( 'NONE',  ( -16.00000000000000000, 0.000000000000000000, 10.00000000000000000 ) ) ;
#159 = CIRCLE ( 'NONE', #206, 12.50000000000000000 ) ;
#160 = EDGE_LOOP ( 'NONE', ( #32, #34 ) ) ;
#161 = ADVANCED_FACE ( 'NONE', ( #233 ), #57, .T. ) ;
#162 = AXIS2_PLACEMENT_3D ( 'NONE', #103, #98, #153 ) ;
#163 = VERTEX_POINT ( 'NONE', #237 ) ;
#164 = VERTEX_POINT ( 'NONE', #80 ) ;
#165 = APPROVAL_DATE_TIME ( #210, #241 ) ;
#166 = ORIENTED_EDGE ( 'NONE', *, *, #155, .F. ) ;
#167 = PERSON_AND_ORGANIZATION_ROLE ( 'creator' ) ;
#168 = PERSON_AND_ORGANIZATION ( #62, #102 ) ;
#169 = COORDINATED_UNIVERSAL_TIME_OFFSET ( 1, 0, .AHEAD. ) ;
#170 = CIRCLE ( 'NONE', #196, 16.00000000000000000 ) ;
#171 = LINE ( 'NONE', #3, #14 ) ;
#172 = CARTESIAN_POINT ( 'NONE',  ( 12.50000000000000000, 1.530808498934191521E-15, 160.0000000000000000 ) ) ;
#173 = APPROVAL_DATE_TIME ( #152, #37 ) ;
#174 = ORIENTED_EDGE ( 'NONE', *, *, #236, .F. ) ;
#175 = ADVANCED_FACE ( 'NONE', ( #240 ), #61, .T. ) ;
#176 = CC_DESIGN_PERSON_AND_ORGANIZATION_ASSIGNMENT ( #232, #1, ( #118 ) ) ;
#177 = MANIFOLD_SOLID_BREP ( 'Pøidat vysunutím3', #82 ) ;
#178 = CIRCLE ( 'NONE', #69, 12.50000000000000000 ) ;
#179 = CC_DESIGN_SECURITY_CLASSIFICATION ( #239, ( #118 ) ) ;
#180 = DIRECTION ( 'NONE',  ( -0.000000000000000000, -0.000000000000000000, -1.000000000000000000 ) ) ;
#181 = CC_DESIGN_PERSON_AND_ORGANIZATION_ASSIGNMENT ( #11, #21, ( #157 ) ) ;
#182 = DIRECTION ( 'NONE',  ( 1.000000000000000000, 0.000000000000000000, 0.000000000000000000 ) ) ;
#183 = ORIENTED_EDGE ( 'NONE', *, *, #17, .T. ) ;
#184 = DIRECTION ( 'NONE',  ( -0.000000000000000000, -0.000000000000000000, -1.000000000000000000 ) ) ;
#185 = ORIENTED_EDGE ( 'NONE', *, *, #250, .F. ) ;
#186 = CC_DESIGN_PERSON_AND_ORGANIZATION_ASSIGNMENT ( #207, #230, ( #118 ) ) ;
#187 = EDGE_LOOP ( 'NONE', ( #108, #227 ) ) ;
#188 = ORIENTED_EDGE ( 'NONE', *, *, #92, .F. ) ;
#189 = APPROVAL_STATUS ( 'not_yet_approved' ) ;
#190 = CC_DESIGN_APPROVAL ( #194, ( #118 ) ) ;
#191 = ADVANCED_FACE ( 'NONE', ( #138, #63 ), #212, .T. ) ;
#192 = EDGE_CURVE ( 'NONE', #36, #164, #64, .T. ) ;
#193 = PERSON_AND_ORGANIZATION ( #62, #102 ) ;
#194 = APPROVAL ( #225, 'NEURÈENÝ' ) ;
#195 = CARTESIAN_POINT ( 'NONE',  ( 0.000000000000000000, 0.000000000000000000, 0.000000000000000000 ) ) ;
#196 = AXIS2_PLACEMENT_3D ( 'NONE', #121, #97, #235 ) ;
#197 = DIRECTION ( 'NONE',  ( 1.000000000000000000, 0.000000000000000000, -0.000000000000000000 ) ) ;
#198 = CC_DESIGN_APPROVAL ( #37, ( #239 ) ) ;
#199 = LINE ( 'NONE', #126, #142 ) ;
#200 = ADVANCED_FACE ( 'NONE', ( #24 ), #81, .T. ) ;
#201 = CARTESIAN_POINT ( 'NONE',  ( 0.000000000000000000, 0.000000000000000000, 0.000000000000000000 ) ) ;
#202 = CARTESIAN_POINT ( 'NONE',  ( 0.000000000000000000, 0.000000000000000000, 0.000000000000000000 ) ) ;
#203 = MECHANICAL_CONTEXT ( 'NONE', #140, 'mechanical' ) ;
#204 = VERTEX_POINT ( 'NONE', #158 ) ;
#205 = ORIENTED_EDGE ( 'NONE', *, *, #192, .F. ) ;
#206 = AXIS2_PLACEMENT_3D ( 'NONE', #4, #46, #48 ) ;
#207 = PERSON_AND_ORGANIZATION ( #62, #102 ) ;
#208 = ADVANCED_FACE ( 'NONE', ( #124 ), #47, .T. ) ;
#209 = DIRECTION ( 'NONE',  ( 0.000000000000000000, 0.000000000000000000, 1.000000000000000000 ) ) ;
#210 = DATE_AND_TIME ( #90, #85 ) ;
#211 = PRODUCT_DEFINITION_SHAPE ( 'NONE', 'NONE',  #147 ) ;
#212 = PLANE ( 'NONE',  #156 ) ;
#213 = CARTESIAN_POINT ( 'NONE',  ( 0.000000000000000000, 0.000000000000000000, 0.000000000000000000 ) ) ;
#214 = CARTESIAN_POINT ( 'NONE',  ( 0.000000000000000000, 0.000000000000000000, 10.00000000000000000 ) ) ;
#215 = EDGE_CURVE ( 'NONE', #204, #163, #199, .T. ) ;
#216 = DIRECTION ( 'NONE',  ( -0.000000000000000000, -0.000000000000000000, -1.000000000000000000 ) ) ;
#217 = VECTOR ( 'NONE', #184, 1000.000000000000000 ) ;
#218 = LINE ( 'NONE', #220, #217 ) ;
#219 = UNCERTAINTY_MEASURE_WITH_UNIT (LENGTH_MEASURE( 1.000000000000000082E-05 ), #131, 'distance_accuracy_value', 'NONE');
#220 = CARTESIAN_POINT ( 'NONE',  ( 16.00000000000000000, 1.959434878635765131E-15, 10.00000000000000000 ) ) ;
#221 = LOCAL_TIME ( 8, 52, 32.00000000000000000, #133 ) ;
#222 = ORIENTED_EDGE ( 'NONE', *, *, #192, .T. ) ;
#223 = EDGE_LOOP ( 'NONE', ( #18, #54 ) ) ;
#224 = EDGE_CURVE ( 'NONE', #252, #30, #218, .T. ) ;
#225 = APPROVAL_STATUS ( 'not_yet_approved' ) ;
#226 = CC_DESIGN_APPROVAL ( #241, ( #147 ) ) ;
#227 = ORIENTED_EDGE ( 'NONE', *, *, #236, .T. ) ;
#228 = COORDINATED_UNIVERSAL_TIME_OFFSET ( 1, 0, .AHEAD. ) ;
#229 = SHAPE_DEFINITION_REPRESENTATION ( #211, #139 ) ;
#230 = PERSON_AND_ORGANIZATION_ROLE ( 'design_supplier' ) ;
#231 = DIRECTION ( 'NONE',  ( -0.000000000000000000, -0.000000000000000000, -1.000000000000000000 ) ) ;
#232 = PERSON_AND_ORGANIZATION ( #62, #102 ) ;
#233 = FACE_OUTER_BOUND ( 'NONE', #251, .T. ) ;
#234 = VECTOR ( 'NONE', #122, 1000.000000000000000 ) ;
#235 = DIRECTION ( 'NONE',  ( 1.000000000000000000, 0.000000000000000000, 0.000000000000000000 ) ) ;
#236 = EDGE_CURVE ( 'NONE', #252, #204, #144, .T. ) ;
#237 = CARTESIAN_POINT ( 'NONE',  ( -16.00000000000000000, 0.000000000000000000, 0.000000000000000000 ) ) ;
#238 = ORIENTED_EDGE ( 'NONE', *, *, #215, .F. ) ;
#239 = SECURITY_CLASSIFICATION ( '', '', #75 ) ;
#240 = FACE_OUTER_BOUND ( 'NONE', #60, .T. ) ;
#241 = APPROVAL ( #53, 'NEURÈENÝ' ) ;
#242 = DIRECTION ( 'NONE',  ( 0.000000000000000000, 0.000000000000000000, 1.000000000000000000 ) ) ;
#243 = CIRCLE ( 'NONE', #49, 12.50000000000000000 ) ;
#244 = DIRECTION ( 'NONE',  ( 0.000000000000000000, 0.000000000000000000, 1.000000000000000000 ) ) ;
#245 = DIRECTION ( 'NONE',  ( -0.000000000000000000, -0.000000000000000000, -1.000000000000000000 ) ) ;
#246 = CYLINDRICAL_SURFACE ( 'NONE', #29, 16.00000000000000000 ) ;
#247 = EDGE_LOOP ( 'NONE', ( #174, #88, #137, #238 ) ) ;
#248 = APPROVAL_PERSON_ORGANIZATION ( #110, #37, #91 ) ;
#249 = CARTESIAN_POINT ( 'NONE',  ( 0.000000000000000000, 0.000000000000000000, 10.00000000000000000 ) ) ;
#250 = EDGE_CURVE ( 'NONE', #16, #164, #243, .T. ) ;
#251 = EDGE_LOOP ( 'NONE', ( #205, #99, #132, #89 ) ) ;
#252 = VERTEX_POINT ( 'NONE', #87 ) ;
#253 = DATE_TIME_ROLE ( 'creation_date' ) ;
#254 = CALENDAR_DATE ( 2023, 13, 2 ) ;
#255 = APPROVAL_PERSON_ORGANIZATION ( #168, #194, #109 ) ;
ENDSEC;
END-ISO-10303-21;
