ISO-10303-21;
HEADER;
FILE_DESCRIPTION (( 'STEP AP203' ),
    '1' );
FILE_NAME ('2b46.STEP',
    '2023-02-13T14:36:29',
    ( '' ),
    ( '' ),
    'SwSTEP 2.0',
    'SolidWorks 2019',
    '' );
FILE_SCHEMA (( 'CONFIG_CONTROL_DESIGN' ));
ENDSEC;

DATA;
#1 = ORIENTED_EDGE ( 'NONE', *, *, #108, .F. ) ;
#2 = ORIENTED_EDGE ( 'NONE', *, *, #54, .T. ) ;
#3 = CARTESIAN_POINT ( 'NONE',  ( 2.500000000000000000, 3.061616997868383141E-16, 3.000000000000000000 ) ) ;
#4 = DIRECTION ( 'NONE',  ( -0.000000000000000000, -0.000000000000000000, -1.000000000000000000 ) ) ;
#5 = CARTESIAN_POINT ( 'NONE',  ( 5.000000000000000000, 6.123233995736766282E-16, 3.000000000000000000 ) ) ;
#6 = AXIS2_PLACEMENT_3D ( 'NONE', #14, #88, #16 ) ;
#7 = CIRCLE ( 'NONE', #43, 5.000000000000000000 ) ;
#8 =( NAMED_UNIT ( * ) SI_UNIT ( $, .STERADIAN. ) SOLID_ANGLE_UNIT ( ) );
#9 =( NAMED_UNIT ( * ) PLANE_ANGLE_UNIT ( ) SI_UNIT ( $, .RADIAN. ) );
#10 = CALENDAR_DATE ( 2023, 13, 2 ) ;
#11 = PLANE ( 'NONE',  #6 ) ;
#12 = PERSON_AND_ORGANIZATION ( #53, #151 ) ;
#13 = EDGE_CURVE ( 'NONE', #127, #32, #7, .T. ) ;
#14 = CARTESIAN_POINT ( 'NONE',  ( 0.000000000000000000, 0.000000000000000000, 630.0000000000000000 ) ) ;
#15 = ORIENTED_EDGE ( 'NONE', *, *, #141, .F. ) ;
#16 = DIRECTION ( 'NONE',  ( 1.000000000000000000, 0.000000000000000000, -0.000000000000000000 ) ) ;
#17 = AXIS2_PLACEMENT_3D ( 'NONE', #81, #201, #105 ) ;
#18 = ORIENTED_EDGE ( 'NONE', *, *, #176, .F. ) ;
#19 = ORIENTED_EDGE ( 'NONE', *, *, #193, .T. ) ;
#20 = ORIENTED_EDGE ( 'NONE', *, *, #242, .F. ) ;
#21 = CARTESIAN_POINT ( 'NONE',  ( 0.000000000000000000, 0.000000000000000000, 630.0000000000000000 ) ) ;
#22 = DIRECTION ( 'NONE',  ( -1.000000000000000000, 0.000000000000000000, 0.000000000000000000 ) ) ;
#23 = CC_DESIGN_PERSON_AND_ORGANIZATION_ASSIGNMENT ( #12, #143, ( #50 ) ) ;
#24 = CARTESIAN_POINT ( 'NONE',  ( 0.000000000000000000, 0.000000000000000000, 0.000000000000000000 ) ) ;
#25 = CALENDAR_DATE ( 2023, 13, 2 ) ;
#26 = PERSON_AND_ORGANIZATION ( #53, #151 ) ;
#27 = CIRCLE ( 'NONE', #205, 5.000000000000000000 ) ;
#28 = PERSON_AND_ORGANIZATION ( #53, #151 ) ;
#29 = MECHANICAL_CONTEXT ( 'NONE', #112, 'mechanical' ) ;
#30 = CIRCLE ( 'NONE', #188, 2.500000000000000000 ) ;
#31 = ORIENTED_EDGE ( 'NONE', *, *, #13, .T. ) ;
#32 = VERTEX_POINT ( 'NONE', #236 ) ;
#33 = ORIENTED_EDGE ( 'NONE', *, *, #108, .T. ) ;
#34 = VERTEX_POINT ( 'NONE', #217 ) ;
#35 = UNCERTAINTY_MEASURE_WITH_UNIT (LENGTH_MEASURE( 1.000000000000000082E-05 ), #117, 'distance_accuracy_value', 'NONE');
#36 = ORIENTED_EDGE ( 'NONE', *, *, #163, .F. ) ;
#37 = EDGE_CURVE ( 'NONE', #34, #113, #195, .T. ) ;
#38 = ORIENTED_EDGE ( 'NONE', *, *, #176, .T. ) ;
#39 = CARTESIAN_POINT ( 'NONE',  ( -2.500000000000000000, 0.000000000000000000, 3.000000000000000000 ) ) ;
#40 = CYLINDRICAL_SURFACE ( 'NONE', #252, 5.000000000000000000 ) ;
#41 = APPROVAL ( #60, 'NEURÈENÝ' ) ;
#42 = CARTESIAN_POINT ( 'NONE',  ( 0.000000000000000000, 0.000000000000000000, 3.000000000000000000 ) ) ;
#43 = AXIS2_PLACEMENT_3D ( 'NONE', #95, #215, #74 ) ;
#44 = MANIFOLD_SOLID_BREP ( 'Pøidat vysunutím3', #152 ) ;
#45 = PLANE ( 'NONE',  #103 ) ;
#46 = DATE_AND_TIME ( #25, #212 ) ;
#47 = DATE_AND_TIME ( #230, #145 ) ;
#48 = DIRECTION ( 'NONE',  ( -0.000000000000000000, -0.000000000000000000, -1.000000000000000000 ) ) ;
#49 = APPROVAL_ROLE ( '' ) ;
#50 = PRODUCT_DEFINITION_FORMATION_WITH_SPECIFIED_SOURCE ( 'LIBOVOLNÝ', '', #130, .NOT_KNOWN. ) ;
#51 = EDGE_LOOP ( 'NONE', ( #169, #144, #91, #18 ) ) ;
#52 = VERTEX_POINT ( 'NONE', #39 ) ;
#53 = PERSON ( 'NEURÈENÝ', 'NEURÈENÝ', 'NEURÈENÝ', ('NEURÈENÝ'), ('NEURÈENÝ'), ('NEURÈENÝ') ) ;
#54 = EDGE_CURVE ( 'NONE', #127, #210, #148, .T. ) ;
#55 = CYLINDRICAL_SURFACE ( 'NONE', #177, 2.500000000000000000 ) ;
#56 = DIRECTION ( 'NONE',  ( -0.000000000000000000, -0.000000000000000000, -1.000000000000000000 ) ) ;
#57 = CARTESIAN_POINT ( 'NONE',  ( 0.000000000000000000, 0.000000000000000000, 630.0000000000000000 ) ) ;
#58 = CC_DESIGN_APPROVAL ( #65, ( #50 ) ) ;
#59 = CARTESIAN_POINT ( 'NONE',  ( 0.000000000000000000, 0.000000000000000000, 630.0000000000000000 ) ) ;
#60 = APPROVAL_STATUS ( 'not_yet_approved' ) ;
#61 = PRODUCT_RELATED_PRODUCT_CATEGORY ( 'detail', '', ( #130 ) ) ;
#62 = PERSON_AND_ORGANIZATION_ROLE ( 'design_supplier' ) ;
#63 = APPROVAL_PERSON_ORGANIZATION ( #243, #41, #223 ) ;
#64 = PERSON_AND_ORGANIZATION ( #53, #151 ) ;
#65 = APPROVAL ( #124, 'NEURÈENÝ' ) ;
#66 = DIRECTION ( 'NONE',  ( 0.000000000000000000, 0.000000000000000000, 1.000000000000000000 ) ) ;
#67 = VECTOR ( 'NONE', #56, 1000.000000000000000 ) ;
#68 = DIRECTION ( 'NONE',  ( 1.000000000000000000, 0.000000000000000000, 0.000000000000000000 ) ) ;
#69 = CIRCLE ( 'NONE', #170, 2.500000000000000000 ) ;
#70 = ORIENTED_EDGE ( 'NONE', *, *, #119, .T. ) ;
#71 = PLANE ( 'NONE',  #225 ) ;
#72 = EDGE_LOOP ( 'NONE', ( #187, #20, #38, #167 ) ) ;
#73 = CIRCLE ( 'NONE', #220, 2.500000000000000000 ) ;
#74 = DIRECTION ( 'NONE',  ( 1.000000000000000000, 0.000000000000000000, 0.000000000000000000 ) ) ;
#75 = DIRECTION ( 'NONE',  ( 1.000000000000000000, 0.000000000000000000, 0.000000000000000000 ) ) ;
#76 = PRODUCT_DEFINITION ( 'NEZNÁMÝ', '', #50, #146 ) ;
#77 = CARTESIAN_POINT ( 'NONE',  ( 0.000000000000000000, 0.000000000000000000, 3.000000000000000000 ) ) ;
#78 = AXIS2_PLACEMENT_3D ( 'NONE', #196, #134, #178 ) ;
#79 = DIRECTION ( 'NONE',  ( -0.000000000000000000, -0.000000000000000000, -1.000000000000000000 ) ) ;
#80 = DATE_AND_TIME ( #123, #246 ) ;
#81 = CARTESIAN_POINT ( 'NONE',  ( 0.000000000000000000, 0.000000000000000000, 0.000000000000000000 ) ) ;
#82 = ADVANCED_FACE ( 'NONE', ( #153 ), #40, .T. ) ;
#83 = PERSON_AND_ORGANIZATION_ROLE ( 'creator' ) ;
#84 = PERSON_AND_ORGANIZATION ( #53, #151 ) ;
#85 = DIRECTION ( 'NONE',  ( 1.000000000000000000, 0.000000000000000000, -0.000000000000000000 ) ) ;
#86 = DIRECTION ( 'NONE',  ( 1.000000000000000000, 0.000000000000000000, 0.000000000000000000 ) ) ;
#87 = ADVANCED_BREP_SHAPE_REPRESENTATION ( '2b46', ( #44, #17 ), #122 ) ;
#88 = DIRECTION ( 'NONE',  ( 0.000000000000000000, 0.000000000000000000, 1.000000000000000000 ) ) ;
#89 = ORIENTED_EDGE ( 'NONE', *, *, #147, .F. ) ;
#90 = CARTESIAN_POINT ( 'NONE',  ( -2.500000000000000000, 0.000000000000000000, 630.0000000000000000 ) ) ;
#91 = ORIENTED_EDGE ( 'NONE', *, *, #147, .T. ) ;
#92 = VERTEX_POINT ( 'NONE', #238 ) ;
#93 = SECURITY_CLASSIFICATION ( '', '', #137 ) ;
#94 = DIRECTION ( 'NONE',  ( 0.000000000000000000, 0.000000000000000000, 1.000000000000000000 ) ) ;
#95 = CARTESIAN_POINT ( 'NONE',  ( 0.000000000000000000, 0.000000000000000000, 3.000000000000000000 ) ) ;
#96 = FACE_BOUND ( 'NONE', #171, .T. ) ;
#97 = ORIENTED_EDGE ( 'NONE', *, *, #54, .F. ) ;
#98 = CC_DESIGN_APPROVAL ( #41, ( #76 ) ) ;
#99 = FACE_OUTER_BOUND ( 'NONE', #129, .T. ) ;
#100 = DATE_TIME_ROLE ( 'creation_date' ) ;
#101 = ADVANCED_FACE ( 'NONE', ( #99 ), #159, .T. ) ;
#102 = PERSON_AND_ORGANIZATION_ROLE ( 'design_owner' ) ;
#103 = AXIS2_PLACEMENT_3D ( 'NONE', #118, #200, #149 ) ;
#104 = ADVANCED_FACE ( 'NONE', ( #96, #194 ), #45, .T. ) ;
#105 = DIRECTION ( 'NONE',  ( 1.000000000000000000, 0.000000000000000000, 0.000000000000000000 ) ) ;
#106 = COORDINATED_UNIVERSAL_TIME_OFFSET ( 1, 0, .AHEAD. ) ;
#107 = VECTOR ( 'NONE', #48, 1000.000000000000000 ) ;
#108 = EDGE_CURVE ( 'NONE', #32, #127, #27, .T. ) ;
#109 = CIRCLE ( 'NONE', #241, 5.000000000000000000 ) ;
#110 = CARTESIAN_POINT ( 'NONE',  ( -5.000000000000000000, 0.000000000000000000, 3.000000000000000000 ) ) ;
#111 = DIRECTION ( 'NONE',  ( -0.000000000000000000, -0.000000000000000000, -1.000000000000000000 ) ) ;
#112 = APPLICATION_CONTEXT ( 'configuration controlled 3d designs of mechanical parts and assemblies' ) ;
#113 = VERTEX_POINT ( 'NONE', #3 ) ;
#114 = CARTESIAN_POINT ( 'NONE',  ( -5.000000000000000000, 0.000000000000000000, 3.000000000000000000 ) ) ;
#115 = APPROVAL_PERSON_ORGANIZATION ( #166, #65, #49 ) ;
#116 = ADVANCED_FACE ( 'NONE', ( #235 ), #55, .T. ) ;
#117 =( LENGTH_UNIT ( ) NAMED_UNIT ( * ) SI_UNIT ( .MILLI., .METRE. ) );
#118 = CARTESIAN_POINT ( 'NONE',  ( 0.000000000000000000, 0.000000000000000000, 3.000000000000000000 ) ) ;
#119 = EDGE_CURVE ( 'NONE', #32, #92, #219, .T. ) ;
#120 = VECTOR ( 'NONE', #79, 1000.000000000000000 ) ;
#121 = CC_DESIGN_APPROVAL ( #234, ( #93 ) ) ;
#122 =( GEOMETRIC_REPRESENTATION_CONTEXT ( 3 ) GLOBAL_UNCERTAINTY_ASSIGNED_CONTEXT ( ( #35 ) ) GLOBAL_UNIT_ASSIGNED_CONTEXT ( ( #117, #9, #8 ) ) REPRESENTATION_CONTEXT ( 'NONE', 'WORKASPACE' ) );
#123 = CALENDAR_DATE ( 2023, 13, 2 ) ;
#124 = APPROVAL_STATUS ( 'not_yet_approved' ) ;
#125 = AXIS2_PLACEMENT_3D ( 'NONE', #24, #202, #86 ) ;
#126 = SHAPE_DEFINITION_REPRESENTATION ( #132, #87 ) ;
#127 = VERTEX_POINT ( 'NONE', #114 ) ;
#128 = ORIENTED_EDGE ( 'NONE', *, *, #119, .F. ) ;
#129 = EDGE_LOOP ( 'NONE', ( #128, #253, #2, #213 ) ) ;
#130 = PRODUCT ( '2b46', '2b46', '', ( #29 ) ) ;
#131 = CARTESIAN_POINT ( 'NONE',  ( 2.500000000000000000, 3.061616997868383141E-16, 630.0000000000000000 ) ) ;
#132 = PRODUCT_DEFINITION_SHAPE ( 'NONE', 'NONE',  #76 ) ;
#133 = CC_DESIGN_PERSON_AND_ORGANIZATION_ASSIGNMENT ( #84, #251, ( #93 ) ) ;
#134 = DIRECTION ( 'NONE',  ( 0.000000000000000000, 0.000000000000000000, 1.000000000000000000 ) ) ;
#135 = DIRECTION ( 'NONE',  ( -1.000000000000000000, 0.000000000000000000, 0.000000000000000000 ) ) ;
#136 = APPLICATION_PROTOCOL_DEFINITION ( 'international standard', 'config_control_design', 1994, #112 ) ;
#137 = SECURITY_CLASSIFICATION_LEVEL ( 'unclassified' ) ;
#138 = DATE_AND_TIME ( #10, #190 ) ;
#139 = CARTESIAN_POINT ( 'NONE',  ( 0.000000000000000000, 0.000000000000000000, 630.0000000000000000 ) ) ;
#140 = PERSON_AND_ORGANIZATION ( #53, #151 ) ;
#141 = EDGE_CURVE ( 'NONE', #52, #113, #150, .T. ) ;
#142 = LINE ( 'NONE', #229, #107 ) ;
#143 = PERSON_AND_ORGANIZATION_ROLE ( 'creator' ) ;
#144 = ORIENTED_EDGE ( 'NONE', *, *, #37, .T. ) ;
#145 = LOCAL_TIME ( 15, 36, 29.00000000000000000, #245 ) ;
#146 = DESIGN_CONTEXT ( 'detailed design', #254, 'design' ) ;
#147 = EDGE_CURVE ( 'NONE', #113, #52, #73, .T. ) ;
#148 = LINE ( 'NONE', #110, #184 ) ;
#149 = DIRECTION ( 'NONE',  ( 1.000000000000000000, 0.000000000000000000, -0.000000000000000000 ) ) ;
#150 = CIRCLE ( 'NONE', #78, 2.500000000000000000 ) ;
#151 = ORGANIZATION ( 'NEURÈENÝ', 'NEURÈENÝ', '' ) ;
#152 = CLOSED_SHELL ( 'NONE', ( #250, #82, #101, #104, #172, #116, #226 ) ) ;
#153 = FACE_OUTER_BOUND ( 'NONE', #173, .T. ) ;
#154 = CC_DESIGN_DATE_AND_TIME_ASSIGNMENT ( #80, #100, ( #76 ) ) ;
#155 = DIRECTION ( 'NONE',  ( 0.000000000000000000, 0.000000000000000000, 1.000000000000000000 ) ) ;
#156 = FACE_OUTER_BOUND ( 'NONE', #51, .T. ) ;
#157 = APPROVAL_PERSON_ORGANIZATION ( #64, #234, #244 ) ;
#158 = LOCAL_TIME ( 15, 36, 29.00000000000000000, #204 ) ;
#159 = CYLINDRICAL_SURFACE ( 'NONE', #214, 5.000000000000000000 ) ;
#160 = APPLICATION_PROTOCOL_DEFINITION ( 'international standard', 'config_control_design', 1994, #254 ) ;
#161 = CALENDAR_DATE ( 2023, 13, 2 ) ;
#162 = DATE_AND_TIME ( #161, #158 ) ;
#163 = EDGE_CURVE ( 'NONE', #210, #92, #239, .T. ) ;
#164 = CARTESIAN_POINT ( 'NONE',  ( 0.000000000000000000, 0.000000000000000000, 0.000000000000000000 ) ) ;
#165 = CARTESIAN_POINT ( 'NONE',  ( -5.000000000000000000, 0.000000000000000000, 0.000000000000000000 ) ) ;
#166 = PERSON_AND_ORGANIZATION ( #53, #151 ) ;
#167 = ORIENTED_EDGE ( 'NONE', *, *, #141, .T. ) ;
#168 = VERTEX_POINT ( 'NONE', #90 ) ;
#169 = ORIENTED_EDGE ( 'NONE', *, *, #199, .F. ) ;
#170 = AXIS2_PLACEMENT_3D ( 'NONE', #59, #222, #180 ) ;
#171 = EDGE_LOOP ( 'NONE', ( #15, #89 ) ) ;
#172 = ADVANCED_FACE ( 'NONE', ( #247 ), #71, .F. ) ;
#173 = EDGE_LOOP ( 'NONE', ( #1, #70, #19, #97 ) ) ;
#174 = DIRECTION ( 'NONE',  ( -0.000000000000000000, -0.000000000000000000, -1.000000000000000000 ) ) ;
#175 = DIRECTION ( 'NONE',  ( -0.000000000000000000, -0.000000000000000000, -1.000000000000000000 ) ) ;
#176 = EDGE_CURVE ( 'NONE', #168, #52, #142, .T. ) ;
#177 = AXIS2_PLACEMENT_3D ( 'NONE', #21, #175, #218 ) ;
#178 = DIRECTION ( 'NONE',  ( 1.000000000000000000, 0.000000000000000000, 0.000000000000000000 ) ) ;
#179 = CARTESIAN_POINT ( 'NONE',  ( 0.000000000000000000, 0.000000000000000000, 3.000000000000000000 ) ) ;
#180 = DIRECTION ( 'NONE',  ( 1.000000000000000000, 0.000000000000000000, 0.000000000000000000 ) ) ;
#181 = DIRECTION ( 'NONE',  ( -0.000000000000000000, -0.000000000000000000, -1.000000000000000000 ) ) ;
#182 = CC_DESIGN_PERSON_AND_ORGANIZATION_ASSIGNMENT ( #140, #62, ( #50 ) ) ;
#183 = APPROVAL_DATE_TIME ( #46, #41 ) ;
#184 = VECTOR ( 'NONE', #174, 1000.000000000000000 ) ;
#185 = APPROVAL_DATE_TIME ( #47, #65 ) ;
#186 = FACE_OUTER_BOUND ( 'NONE', #231, .T. ) ;
#187 = ORIENTED_EDGE ( 'NONE', *, *, #37, .F. ) ;
#188 = AXIS2_PLACEMENT_3D ( 'NONE', #139, #209, #228 ) ;
#189 = EDGE_LOOP ( 'NONE', ( #31, #33 ) ) ;
#190 = LOCAL_TIME ( 15, 36, 29.00000000000000000, #106 ) ;
#191 = ORIENTED_EDGE ( 'NONE', *, *, #242, .T. ) ;
#192 = EDGE_LOOP ( 'NONE', ( #36, #207 ) ) ;
#193 = EDGE_CURVE ( 'NONE', #92, #210, #109, .T. ) ;
#194 = FACE_OUTER_BOUND ( 'NONE', #189, .T. ) ;
#195 = LINE ( 'NONE', #131, #67 ) ;
#196 = CARTESIAN_POINT ( 'NONE',  ( 0.000000000000000000, 0.000000000000000000, 3.000000000000000000 ) ) ;
#197 = DIRECTION ( 'NONE',  ( 1.000000000000000000, 0.000000000000000000, 0.000000000000000000 ) ) ;
#198 = COORDINATED_UNIVERSAL_TIME_OFFSET ( 1, 0, .AHEAD. ) ;
#199 = EDGE_CURVE ( 'NONE', #34, #168, #30, .T. ) ;
#200 = DIRECTION ( 'NONE',  ( 0.000000000000000000, 0.000000000000000000, 1.000000000000000000 ) ) ;
#201 = DIRECTION ( 'NONE',  ( 0.000000000000000000, 0.000000000000000000, 1.000000000000000000 ) ) ;
#202 = DIRECTION ( 'NONE',  ( 0.000000000000000000, 0.000000000000000000, 1.000000000000000000 ) ) ;
#203 = CC_DESIGN_PERSON_AND_ORGANIZATION_ASSIGNMENT ( #28, #83, ( #76 ) ) ;
#204 = COORDINATED_UNIVERSAL_TIME_OFFSET ( 1, 0, .AHEAD. ) ;
#205 = AXIS2_PLACEMENT_3D ( 'NONE', #179, #94, #75 ) ;
#206 = DIRECTION ( 'NONE',  ( 0.000000000000000000, 0.000000000000000000, 1.000000000000000000 ) ) ;
#207 = ORIENTED_EDGE ( 'NONE', *, *, #193, .F. ) ;
#208 = CARTESIAN_POINT ( 'NONE',  ( 0.000000000000000000, 0.000000000000000000, 0.000000000000000000 ) ) ;
#209 = DIRECTION ( 'NONE',  ( 0.000000000000000000, 0.000000000000000000, 1.000000000000000000 ) ) ;
#210 = VERTEX_POINT ( 'NONE', #165 ) ;
#211 = CC_DESIGN_DATE_AND_TIME_ASSIGNMENT ( #162, #224, ( #93 ) ) ;
#212 = LOCAL_TIME ( 15, 36, 29.00000000000000000, #198 ) ;
#213 = ORIENTED_EDGE ( 'NONE', *, *, #163, .T. ) ;
#214 = AXIS2_PLACEMENT_3D ( 'NONE', #221, #111, #216 ) ;
#215 = DIRECTION ( 'NONE',  ( 0.000000000000000000, 0.000000000000000000, 1.000000000000000000 ) ) ;
#216 = DIRECTION ( 'NONE',  ( -1.000000000000000000, 0.000000000000000000, 0.000000000000000000 ) ) ;
#217 = CARTESIAN_POINT ( 'NONE',  ( 2.500000000000000000, 3.061616997868383141E-16, 630.0000000000000000 ) ) ;
#218 = DIRECTION ( 'NONE',  ( -1.000000000000000000, 0.000000000000000000, 0.000000000000000000 ) ) ;
#219 = LINE ( 'NONE', #5, #120 ) ;
#220 = AXIS2_PLACEMENT_3D ( 'NONE', #42, #155, #197 ) ;
#221 = CARTESIAN_POINT ( 'NONE',  ( 0.000000000000000000, 0.000000000000000000, 3.000000000000000000 ) ) ;
#222 = DIRECTION ( 'NONE',  ( 0.000000000000000000, 0.000000000000000000, 1.000000000000000000 ) ) ;
#223 = APPROVAL_ROLE ( '' ) ;
#224 = DATE_TIME_ROLE ( 'classification_date' ) ;
#225 = AXIS2_PLACEMENT_3D ( 'NONE', #164, #66, #85 ) ;
#226 = ADVANCED_FACE ( 'NONE', ( #186 ), #11, .T. ) ;
#227 = COORDINATED_UNIVERSAL_TIME_OFFSET ( 1, 0, .AHEAD. ) ;
#228 = DIRECTION ( 'NONE',  ( 1.000000000000000000, 0.000000000000000000, 0.000000000000000000 ) ) ;
#229 = CARTESIAN_POINT ( 'NONE',  ( -2.500000000000000000, 0.000000000000000000, 630.0000000000000000 ) ) ;
#230 = CALENDAR_DATE ( 2023, 13, 2 ) ;
#231 = EDGE_LOOP ( 'NONE', ( #191, #232 ) ) ;
#232 = ORIENTED_EDGE ( 'NONE', *, *, #199, .T. ) ;
#233 = AXIS2_PLACEMENT_3D ( 'NONE', #57, #181, #135 ) ;
#234 = APPROVAL ( #249, 'NEURÈENÝ' ) ;
#235 = FACE_OUTER_BOUND ( 'NONE', #72, .T. ) ;
#236 = CARTESIAN_POINT ( 'NONE',  ( 5.000000000000000000, 6.123233995736766282E-16, 3.000000000000000000 ) ) ;
#237 = CYLINDRICAL_SURFACE ( 'NONE', #233, 2.500000000000000000 ) ;
#238 = CARTESIAN_POINT ( 'NONE',  ( 5.000000000000000000, 6.123233995736766282E-16, 0.000000000000000000 ) ) ;
#239 = CIRCLE ( 'NONE', #125, 5.000000000000000000 ) ;
#240 = CC_DESIGN_SECURITY_CLASSIFICATION ( #93, ( #50 ) ) ;
#241 = AXIS2_PLACEMENT_3D ( 'NONE', #208, #206, #68 ) ;
#242 = EDGE_CURVE ( 'NONE', #168, #34, #69, .T. ) ;
#243 = PERSON_AND_ORGANIZATION ( #53, #151 ) ;
#244 = APPROVAL_ROLE ( '' ) ;
#245 = COORDINATED_UNIVERSAL_TIME_OFFSET ( 1, 0, .AHEAD. ) ;
#246 = LOCAL_TIME ( 15, 36, 29.00000000000000000, #227 ) ;
#247 = FACE_OUTER_BOUND ( 'NONE', #192, .T. ) ;
#248 = APPROVAL_DATE_TIME ( #138, #234 ) ;
#249 = APPROVAL_STATUS ( 'not_yet_approved' ) ;
#250 = ADVANCED_FACE ( 'NONE', ( #156 ), #237, .T. ) ;
#251 = PERSON_AND_ORGANIZATION_ROLE ( 'classification_officer' ) ;
#252 = AXIS2_PLACEMENT_3D ( 'NONE', #77, #4, #22 ) ;
#253 = ORIENTED_EDGE ( 'NONE', *, *, #13, .F. ) ;
#254 = APPLICATION_CONTEXT ( 'configuration controlled 3d designs of mechanical parts and assemblies' ) ;
#255 = CC_DESIGN_PERSON_AND_ORGANIZATION_ASSIGNMENT ( #26, #102, ( #130 ) ) ;
ENDSEC;
END-ISO-10303-21;
