ISO-10303-21;
HEADER;
FILE_DESCRIPTION (( 'STEP AP203' ),
    '1' );
FILE_NAME ('d0e5.STEP',
    '2023-02-13T15:36:44',
    ( '' ),
    ( '' ),
    'SwSTEP 2.0',
    'SolidWorks 2019',
    '' );
FILE_SCHEMA (( 'CONFIG_CONTROL_DESIGN' ));
ENDSEC;

DATA;
#1 = ORIENTED_EDGE ( 'NONE', *, *, #190, .T. ) ;
#2 = VERTEX_POINT ( 'NONE', #86 ) ;
#3 =( GEOMETRIC_REPRESENTATION_CONTEXT ( 3 ) GLOBAL_UNCERTAINTY_ASSIGNED_CONTEXT ( ( #95 ) ) GLOBAL_UNIT_ASSIGNED_CONTEXT ( ( #83, #230, #215 ) ) REPRESENTATION_CONTEXT ( 'NONE', 'WORKASPACE' ) );
#4 = PLANE ( 'NONE',  #75 ) ;
#5 = ORIENTED_EDGE ( 'NONE', *, *, #51, .T. ) ;
#6 = CC_DESIGN_PERSON_AND_ORGANIZATION_ASSIGNMENT ( #20, #62, ( #79 ) ) ;
#7 = CALENDAR_DATE ( 2023, 13, 2 ) ;
#8 = DIRECTION ( 'NONE',  ( -0.000000000000000000, -0.000000000000000000, -1.000000000000000000 ) ) ;
#9 = DIRECTION ( 'NONE',  ( 0.000000000000000000, 0.000000000000000000, 1.000000000000000000 ) ) ;
#10 = DIRECTION ( 'NONE',  ( 1.000000000000000000, 0.000000000000000000, 0.000000000000000000 ) ) ;
#11 = CARTESIAN_POINT ( 'NONE',  ( 0.000000000000000000, 0.000000000000000000, 500.0000000000000000 ) ) ;
#12 = CARTESIAN_POINT ( 'NONE',  ( 1.500000000000000222, 1.836970198721029934E-16, 500.0000000000000000 ) ) ;
#13 = MECHANICAL_CONTEXT ( 'NONE', #40, 'mechanical' ) ;
#14 = CALENDAR_DATE ( 2023, 13, 2 ) ;
#15 = AXIS2_PLACEMENT_3D ( 'NONE', #74, #93, #77 ) ;
#16 = APPROVAL_PERSON_ORGANIZATION ( #216, #207, #192 ) ;
#17 = DIRECTION ( 'NONE',  ( 1.000000000000000000, 0.000000000000000000, 0.000000000000000000 ) ) ;
#18 = EDGE_CURVE ( 'NONE', #2, #26, #234, .T. ) ;
#19 = DATE_AND_TIME ( #120, #146 ) ;
#20 = PERSON_AND_ORGANIZATION ( #205, #59 ) ;
#21 = APPROVAL_PERSON_ORGANIZATION ( #155, #73, #212 ) ;
#22 = CIRCLE ( 'NONE', #194, 3.000000000000000444 ) ;
#23 = ADVANCED_FACE ( 'NONE', ( #105 ), #4, .T. ) ;
#24 = EDGE_LOOP ( 'NONE', ( #238, #68 ) ) ;
#25 = CC_DESIGN_DATE_AND_TIME_ASSIGNMENT ( #19, #100, ( #250 ) ) ;
#26 = VERTEX_POINT ( 'NONE', #49 ) ;
#27 = EDGE_LOOP ( 'NONE', ( #138, #157, #175, #46 ) ) ;
#28 = CIRCLE ( 'NONE', #198, 3.000000000000000444 ) ;
#29 = PLANE ( 'NONE',  #70 ) ;
#30 = ADVANCED_FACE ( 'NONE', ( #197 ), #29, .F. ) ;
#31 = CARTESIAN_POINT ( 'NONE',  ( 0.000000000000000000, 0.000000000000000000, 3.000000000000000000 ) ) ;
#32 = AXIS2_PLACEMENT_3D ( 'NONE', #31, #144, #55 ) ;
#33 = CARTESIAN_POINT ( 'NONE',  ( 0.000000000000000000, 0.000000000000000000, 500.0000000000000000 ) ) ;
#34 = LOCAL_TIME ( 16, 36, 44.00000000000000000, #252 ) ;
#35 = CARTESIAN_POINT ( 'NONE',  ( -1.500000000000000222, 0.000000000000000000, 500.0000000000000000 ) ) ;
#36 = CYLINDRICAL_SURFACE ( 'NONE', #98, 1.500000000000000222 ) ;
#37 = DIRECTION ( 'NONE',  ( 0.000000000000000000, 0.000000000000000000, 1.000000000000000000 ) ) ;
#38 = CARTESIAN_POINT ( 'NONE',  ( 0.000000000000000000, 0.000000000000000000, 500.0000000000000000 ) ) ;
#39 = PERSON_AND_ORGANIZATION ( #205, #59 ) ;
#40 = APPLICATION_CONTEXT ( 'configuration controlled 3d designs of mechanical parts and assemblies' ) ;
#41 = CC_DESIGN_SECURITY_CLASSIFICATION ( #250, ( #79 ) ) ;
#42 = COORDINATED_UNIVERSAL_TIME_OFFSET ( 1, 0, .AHEAD. ) ;
#43 = SECURITY_CLASSIFICATION_LEVEL ( 'unclassified' ) ;
#44 = LOCAL_TIME ( 16, 36, 44.00000000000000000, #80 ) ;
#45 = AXIS2_PLACEMENT_3D ( 'NONE', #11, #244, #226 ) ;
#46 = ORIENTED_EDGE ( 'NONE', *, *, #190, .F. ) ;
#47 = DIRECTION ( 'NONE',  ( 0.000000000000000000, 0.000000000000000000, 1.000000000000000000 ) ) ;
#48 = SHAPE_DEFINITION_REPRESENTATION ( #156, #231 ) ;
#49 = CARTESIAN_POINT ( 'NONE',  ( 3.000000000000000444, 3.673940397442060361E-16, 3.000000000000000000 ) ) ;
#50 = APPROVAL ( #253, 'NEURÈENÝ' ) ;
#51 = EDGE_CURVE ( 'NONE', #65, #159, #204, .T. ) ;
#52 = CIRCLE ( 'NONE', #45, 1.500000000000000222 ) ;
#53 = ORIENTED_EDGE ( 'NONE', *, *, #213, .F. ) ;
#54 = EDGE_CURVE ( 'NONE', #26, #2, #28, .T. ) ;
#55 = DIRECTION ( 'NONE',  ( 1.000000000000000000, 0.000000000000000000, -0.000000000000000000 ) ) ;
#56 = MANIFOLD_SOLID_BREP ( 'Pøidat vysunutím3', #173 ) ;
#57 = CARTESIAN_POINT ( 'NONE',  ( 3.000000000000000444, 3.673940397442060361E-16, 3.000000000000000000 ) ) ;
#58 = CARTESIAN_POINT ( 'NONE',  ( 0.000000000000000000, 0.000000000000000000, 0.000000000000000000 ) ) ;
#59 = ORGANIZATION ( 'NEURÈENÝ', 'NEURÈENÝ', '' ) ;
#60 = CARTESIAN_POINT ( 'NONE',  ( 0.000000000000000000, 0.000000000000000000, 500.0000000000000000 ) ) ;
#61 = CARTESIAN_POINT ( 'NONE',  ( 1.500000000000000222, 1.836970198721029934E-16, 500.0000000000000000 ) ) ;
#62 = PERSON_AND_ORGANIZATION_ROLE ( 'creator' ) ;
#63 = DATE_TIME_ROLE ( 'creation_date' ) ;
#64 = PERSON_AND_ORGANIZATION ( #205, #59 ) ;
#65 = VERTEX_POINT ( 'NONE', #148 ) ;
#66 = AXIS2_PLACEMENT_3D ( 'NONE', #60, #130, #249 ) ;
#67 = ADVANCED_FACE ( 'NONE', ( #90 ), #36, .T. ) ;
#68 = ORIENTED_EDGE ( 'NONE', *, *, #54, .T. ) ;
#69 = EDGE_LOOP ( 'NONE', ( #224, #195 ) ) ;
#70 = AXIS2_PLACEMENT_3D ( 'NONE', #112, #114, #108 ) ;
#71 = VERTEX_POINT ( 'NONE', #149 ) ;
#72 = CARTESIAN_POINT ( 'NONE',  ( -1.500000000000000222, 0.000000000000000000, 3.000000000000000000 ) ) ;
#73 = APPROVAL ( #153, 'NEURÈENÝ' ) ;
#74 = CARTESIAN_POINT ( 'NONE',  ( 0.000000000000000000, 0.000000000000000000, 3.000000000000000000 ) ) ;
#75 = AXIS2_PLACEMENT_3D ( 'NONE', #87, #239, #141 ) ;
#76 = FACE_OUTER_BOUND ( 'NONE', #196, .T. ) ;
#77 = DIRECTION ( 'NONE',  ( -1.000000000000000000, 0.000000000000000000, 0.000000000000000000 ) ) ;
#78 = CARTESIAN_POINT ( 'NONE',  ( 0.000000000000000000, 0.000000000000000000, 3.000000000000000000 ) ) ;
#79 = PRODUCT_DEFINITION_FORMATION_WITH_SPECIFIED_SOURCE ( 'LIBOVOLNÝ', '', #122, .NOT_KNOWN. ) ;
#80 = COORDINATED_UNIVERSAL_TIME_OFFSET ( 1, 0, .AHEAD. ) ;
#81 = PRODUCT_RELATED_PRODUCT_CATEGORY ( 'detail', '', ( #122 ) ) ;
#82 = APPLICATION_PROTOCOL_DEFINITION ( 'international standard', 'config_control_design', 1994, #181 ) ;
#83 =( LENGTH_UNIT ( ) NAMED_UNIT ( * ) SI_UNIT ( .MILLI., .METRE. ) );
#84 = APPROVAL_DATE_TIME ( #174, #50 ) ;
#85 = ORIENTED_EDGE ( 'NONE', *, *, #209, .F. ) ;
#86 = CARTESIAN_POINT ( 'NONE',  ( -3.000000000000000444, 0.000000000000000000, 3.000000000000000000 ) ) ;
#87 = CARTESIAN_POINT ( 'NONE',  ( 0.000000000000000000, 0.000000000000000000, 500.0000000000000000 ) ) ;
#88 = ORIENTED_EDGE ( 'NONE', *, *, #213, .T. ) ;
#89 = DIRECTION ( 'NONE',  ( -0.000000000000000000, -0.000000000000000000, -1.000000000000000000 ) ) ;
#90 = FACE_OUTER_BOUND ( 'NONE', #160, .T. ) ;
#91 = DIRECTION ( 'NONE',  ( -0.000000000000000000, -0.000000000000000000, -1.000000000000000000 ) ) ;
#92 = EDGE_CURVE ( 'NONE', #71, #240, #22, .T. ) ;
#93 = DIRECTION ( 'NONE',  ( -0.000000000000000000, -0.000000000000000000, -1.000000000000000000 ) ) ;
#94 = AXIS2_PLACEMENT_3D ( 'NONE', #58, #129, #147 ) ;
#95 = UNCERTAINTY_MEASURE_WITH_UNIT (LENGTH_MEASURE( 1.000000000000000082E-05 ), #83, 'distance_accuracy_value', 'NONE');
#96 = DIRECTION ( 'NONE',  ( -0.000000000000000000, -0.000000000000000000, -1.000000000000000000 ) ) ;
#97 = DATE_AND_TIME ( #119, #218 ) ;
#98 = AXIS2_PLACEMENT_3D ( 'NONE', #33, #208, #125 ) ;
#99 = APPROVAL_PERSON_ORGANIZATION ( #171, #50, #199 ) ;
#100 = DATE_TIME_ROLE ( 'classification_date' ) ;
#101 = AXIS2_PLACEMENT_3D ( 'NONE', #111, #166, #184 ) ;
#102 = VECTOR ( 'NONE', #89, 1000.000000000000000 ) ;
#103 = ORIENTED_EDGE ( 'NONE', *, *, #187, .T. ) ;
#104 = ORIENTED_EDGE ( 'NONE', *, *, #187, .F. ) ;
#105 = FACE_OUTER_BOUND ( 'NONE', #69, .T. ) ;
#106 = EDGE_LOOP ( 'NONE', ( #53, #176 ) ) ;
#107 = ORIENTED_EDGE ( 'NONE', *, *, #92, .F. ) ;
#108 = DIRECTION ( 'NONE',  ( 1.000000000000000000, 0.000000000000000000, -0.000000000000000000 ) ) ;
#109 = AXIS2_PLACEMENT_3D ( 'NONE', #220, #47, #123 ) ;
#110 = AXIS2_PLACEMENT_3D ( 'NONE', #38, #151, #117 ) ;
#111 = CARTESIAN_POINT ( 'NONE',  ( 0.000000000000000000, 0.000000000000000000, 3.000000000000000000 ) ) ;
#112 = CARTESIAN_POINT ( 'NONE',  ( 0.000000000000000000, 0.000000000000000000, 0.000000000000000000 ) ) ;
#113 = CC_DESIGN_PERSON_AND_ORGANIZATION_ASSIGNMENT ( #64, #135, ( #250 ) ) ;
#114 = DIRECTION ( 'NONE',  ( 0.000000000000000000, 0.000000000000000000, 1.000000000000000000 ) ) ;
#115 = DIRECTION ( 'NONE',  ( -0.000000000000000000, -0.000000000000000000, -1.000000000000000000 ) ) ;
#116 = PERSON_AND_ORGANIZATION_ROLE ( 'design_owner' ) ;
#117 = DIRECTION ( 'NONE',  ( 1.000000000000000000, 0.000000000000000000, 0.000000000000000000 ) ) ;
#118 = DESIGN_CONTEXT ( 'detailed design', #181, 'design' ) ;
#119 = CALENDAR_DATE ( 2023, 13, 2 ) ;
#120 = CALENDAR_DATE ( 2023, 13, 2 ) ;
#121 = ORIENTED_EDGE ( 'NONE', *, *, #168, .F. ) ;
#122 = PRODUCT ( 'd0e5', 'd0e5', '', ( #13 ) ) ;
#123 = DIRECTION ( 'NONE',  ( 1.000000000000000000, 0.000000000000000000, 0.000000000000000000 ) ) ;
#124 = ORIENTED_EDGE ( 'NONE', *, *, #168, .T. ) ;
#125 = DIRECTION ( 'NONE',  ( -1.000000000000000000, 0.000000000000000000, 0.000000000000000000 ) ) ;
#126 = LINE ( 'NONE', #185, #127 ) ;
#127 = VECTOR ( 'NONE', #91, 1000.000000000000000 ) ;
#128 = CC_DESIGN_APPROVAL ( #73, ( #79 ) ) ;
#129 = DIRECTION ( 'NONE',  ( 0.000000000000000000, 0.000000000000000000, 1.000000000000000000 ) ) ;
#130 = DIRECTION ( 'NONE',  ( -0.000000000000000000, -0.000000000000000000, -1.000000000000000000 ) ) ;
#131 = LINE ( 'NONE', #210, #136 ) ;
#132 = APPROVAL_DATE_TIME ( #251, #207 ) ;
#133 = CC_DESIGN_APPROVAL ( #207, ( #236 ) ) ;
#134 = APPROVAL_STATUS ( 'not_yet_approved' ) ;
#135 = PERSON_AND_ORGANIZATION_ROLE ( 'classification_officer' ) ;
#136 = VECTOR ( 'NONE', #115, 1000.000000000000000 ) ;
#137 = CC_DESIGN_PERSON_AND_ORGANIZATION_ASSIGNMENT ( #39, #116, ( #122 ) ) ;
#138 = ORIENTED_EDGE ( 'NONE', *, *, #54, .F. ) ;
#139 = AXIS2_PLACEMENT_3D ( 'NONE', #78, #8, #164 ) ;
#140 = VERTEX_POINT ( 'NONE', #12 ) ;
#141 = DIRECTION ( 'NONE',  ( 1.000000000000000000, 0.000000000000000000, -0.000000000000000000 ) ) ;
#142 = EDGE_LOOP ( 'NONE', ( #85, #182, #1, #200 ) ) ;
#143 = ADVANCED_FACE ( 'NONE', ( #247, #245 ), #188, .T. ) ;
#144 = DIRECTION ( 'NONE',  ( 0.000000000000000000, 0.000000000000000000, 1.000000000000000000 ) ) ;
#145 = LINE ( 'NONE', #57, #102 ) ;
#146 = LOCAL_TIME ( 16, 36, 44.00000000000000000, #42 ) ;
#147 = DIRECTION ( 'NONE',  ( 1.000000000000000000, 0.000000000000000000, 0.000000000000000000 ) ) ;
#148 = CARTESIAN_POINT ( 'NONE',  ( 1.500000000000000222, 1.836970198721029934E-16, 3.000000000000000000 ) ) ;
#149 = CARTESIAN_POINT ( 'NONE',  ( -3.000000000000000444, 0.000000000000000000, 0.000000000000000000 ) ) ;
#150 = DIRECTION ( 'NONE',  ( 0.000000000000000000, 0.000000000000000000, 1.000000000000000000 ) ) ;
#151 = DIRECTION ( 'NONE',  ( 0.000000000000000000, 0.000000000000000000, 1.000000000000000000 ) ) ;
#152 = EDGE_CURVE ( 'NONE', #140, #235, #52, .T. ) ;
#153 = APPROVAL_STATUS ( 'not_yet_approved' ) ;
#154 = ADVANCED_FACE ( 'NONE', ( #183 ), #206, .T. ) ;
#155 = PERSON_AND_ORGANIZATION ( #205, #59 ) ;
#156 = PRODUCT_DEFINITION_SHAPE ( 'NONE', 'NONE',  #236 ) ;
#157 = ORIENTED_EDGE ( 'NONE', *, *, #209, .T. ) ;
#158 = VECTOR ( 'NONE', #96, 1000.000000000000000 ) ;
#159 = VERTEX_POINT ( 'NONE', #72 ) ;
#160 = EDGE_LOOP ( 'NONE', ( #104, #180, #124, #88 ) ) ;
#161 = CIRCLE ( 'NONE', #241, 1.500000000000000222 ) ;
#162 = CARTESIAN_POINT ( 'NONE',  ( 0.000000000000000000, 0.000000000000000000, 3.000000000000000000 ) ) ;
#163 = DIRECTION ( 'NONE',  ( 1.000000000000000000, 0.000000000000000000, 0.000000000000000000 ) ) ;
#164 = DIRECTION ( 'NONE',  ( -1.000000000000000000, 0.000000000000000000, 0.000000000000000000 ) ) ;
#165 = CIRCLE ( 'NONE', #110, 1.500000000000000222 ) ;
#166 = DIRECTION ( 'NONE',  ( 0.000000000000000000, 0.000000000000000000, 1.000000000000000000 ) ) ;
#167 = FACE_OUTER_BOUND ( 'NONE', #142, .T. ) ;
#168 = EDGE_CURVE ( 'NONE', #235, #159, #126, .T. ) ;
#169 = APPROVAL_DATE_TIME ( #97, #73 ) ;
#170 = LOCAL_TIME ( 16, 36, 44.00000000000000000, #179 ) ;
#171 = PERSON_AND_ORGANIZATION ( #205, #59 ) ;
#172 = PERSON_AND_ORGANIZATION_ROLE ( 'creator' ) ;
#173 = CLOSED_SHELL ( 'NONE', ( #243, #154, #201, #143, #30, #67, #23 ) ) ;
#174 = DATE_AND_TIME ( #7, #170 ) ;
#175 = ORIENTED_EDGE ( 'NONE', *, *, #223, .T. ) ;
#176 = ORIENTED_EDGE ( 'NONE', *, *, #51, .F. ) ;
#177 = ORIENTED_EDGE ( 'NONE', *, *, #223, .F. ) ;
#178 = CC_DESIGN_PERSON_AND_ORGANIZATION_ASSIGNMENT ( #214, #191, ( #79 ) ) ;
#179 = COORDINATED_UNIVERSAL_TIME_OFFSET ( 1, 0, .AHEAD. ) ;
#180 = ORIENTED_EDGE ( 'NONE', *, *, #254, .F. ) ;
#181 = APPLICATION_CONTEXT ( 'configuration controlled 3d designs of mechanical parts and assemblies' ) ;
#182 = ORIENTED_EDGE ( 'NONE', *, *, #18, .F. ) ;
#183 = FACE_OUTER_BOUND ( 'NONE', #27, .T. ) ;
#184 = DIRECTION ( 'NONE',  ( 1.000000000000000000, 0.000000000000000000, 0.000000000000000000 ) ) ;
#185 = CARTESIAN_POINT ( 'NONE',  ( -1.500000000000000222, 0.000000000000000000, 500.0000000000000000 ) ) ;
#186 = CARTESIAN_POINT ( 'NONE',  ( 0.000000000000000000, 0.000000000000000000, 0.000000000000000000 ) ) ;
#187 = EDGE_CURVE ( 'NONE', #140, #65, #202, .T. ) ;
#188 = PLANE ( 'NONE',  #32 ) ;
#189 = CARTESIAN_POINT ( 'NONE',  ( 0.000000000000000000, 0.000000000000000000, 0.000000000000000000 ) ) ;
#190 = EDGE_CURVE ( 'NONE', #2, #71, #131, .T. ) ;
#191 = PERSON_AND_ORGANIZATION_ROLE ( 'design_supplier' ) ;
#192 = APPROVAL_ROLE ( '' ) ;
#193 = PERSON_AND_ORGANIZATION ( #205, #59 ) ;
#194 = AXIS2_PLACEMENT_3D ( 'NONE', #186, #229, #10 ) ;
#195 = ORIENTED_EDGE ( 'NONE', *, *, #152, .T. ) ;
#196 = EDGE_LOOP ( 'NONE', ( #222, #103, #5, #121 ) ) ;
#197 = FACE_OUTER_BOUND ( 'NONE', #221, .T. ) ;
#198 = AXIS2_PLACEMENT_3D ( 'NONE', #203, #37, #163 ) ;
#199 = APPROVAL_ROLE ( '' ) ;
#200 = ORIENTED_EDGE ( 'NONE', *, *, #92, .T. ) ;
#201 = ADVANCED_FACE ( 'NONE', ( #167 ), #248, .T. ) ;
#202 = LINE ( 'NONE', #61, #158 ) ;
#203 = CARTESIAN_POINT ( 'NONE',  ( 0.000000000000000000, 0.000000000000000000, 3.000000000000000000 ) ) ;
#204 = CIRCLE ( 'NONE', #101, 1.500000000000000222 ) ;
#205 = PERSON ( 'NEURÈENÝ', 'NEURÈENÝ', 'NEURÈENÝ', ('NEURÈENÝ'), ('NEURÈENÝ'), ('NEURÈENÝ') ) ;
#206 = CYLINDRICAL_SURFACE ( 'NONE', #15, 3.000000000000000444 ) ;
#207 = APPROVAL ( #134, 'NEURÈENÝ' ) ;
#208 = DIRECTION ( 'NONE',  ( -0.000000000000000000, -0.000000000000000000, -1.000000000000000000 ) ) ;
#209 = EDGE_CURVE ( 'NONE', #26, #240, #145, .T. ) ;
#210 = CARTESIAN_POINT ( 'NONE',  ( -3.000000000000000444, 0.000000000000000000, 3.000000000000000000 ) ) ;
#211 = CIRCLE ( 'NONE', #94, 3.000000000000000444 ) ;
#212 = APPROVAL_ROLE ( '' ) ;
#213 = EDGE_CURVE ( 'NONE', #159, #65, #161, .T. ) ;
#214 = PERSON_AND_ORGANIZATION ( #205, #59 ) ;
#215 =( NAMED_UNIT ( * ) SI_UNIT ( $, .STERADIAN. ) SOLID_ANGLE_UNIT ( ) );
#216 = PERSON_AND_ORGANIZATION ( #205, #59 ) ;
#217 = DATE_AND_TIME ( #232, #44 ) ;
#218 = LOCAL_TIME ( 16, 36, 44.00000000000000000, #233 ) ;
#219 = CC_DESIGN_PERSON_AND_ORGANIZATION_ASSIGNMENT ( #193, #172, ( #236 ) ) ;
#220 = CARTESIAN_POINT ( 'NONE',  ( 0.000000000000000000, 0.000000000000000000, 3.000000000000000000 ) ) ;
#221 = EDGE_LOOP ( 'NONE', ( #107, #177 ) ) ;
#222 = ORIENTED_EDGE ( 'NONE', *, *, #152, .F. ) ;
#223 = EDGE_CURVE ( 'NONE', #240, #71, #211, .T. ) ;
#224 = ORIENTED_EDGE ( 'NONE', *, *, #254, .T. ) ;
#225 = CC_DESIGN_DATE_AND_TIME_ASSIGNMENT ( #217, #63, ( #236 ) ) ;
#226 = DIRECTION ( 'NONE',  ( 1.000000000000000000, 0.000000000000000000, 0.000000000000000000 ) ) ;
#227 = DIRECTION ( 'NONE',  ( 1.000000000000000000, 0.000000000000000000, 0.000000000000000000 ) ) ;
#228 = CYLINDRICAL_SURFACE ( 'NONE', #66, 1.500000000000000222 ) ;
#229 = DIRECTION ( 'NONE',  ( 0.000000000000000000, 0.000000000000000000, 1.000000000000000000 ) ) ;
#230 =( NAMED_UNIT ( * ) PLANE_ANGLE_UNIT ( ) SI_UNIT ( $, .RADIAN. ) );
#231 = ADVANCED_BREP_SHAPE_REPRESENTATION ( 'd0e5', ( #56, #242 ), #3 ) ;
#232 = CALENDAR_DATE ( 2023, 13, 2 ) ;
#233 = COORDINATED_UNIVERSAL_TIME_OFFSET ( 1, 0, .AHEAD. ) ;
#234 = CIRCLE ( 'NONE', #109, 3.000000000000000444 ) ;
#235 = VERTEX_POINT ( 'NONE', #35 ) ;
#236 = PRODUCT_DEFINITION ( 'NEZNÁMÝ', '', #79, #118 ) ;
#237 = CC_DESIGN_APPROVAL ( #50, ( #250 ) ) ;
#238 = ORIENTED_EDGE ( 'NONE', *, *, #18, .T. ) ;
#239 = DIRECTION ( 'NONE',  ( 0.000000000000000000, 0.000000000000000000, 1.000000000000000000 ) ) ;
#240 = VERTEX_POINT ( 'NONE', #246 ) ;
#241 = AXIS2_PLACEMENT_3D ( 'NONE', #162, #9, #227 ) ;
#242 = AXIS2_PLACEMENT_3D ( 'NONE', #189, #150, #17 ) ;
#243 = ADVANCED_FACE ( 'NONE', ( #76 ), #228, .T. ) ;
#244 = DIRECTION ( 'NONE',  ( 0.000000000000000000, 0.000000000000000000, 1.000000000000000000 ) ) ;
#245 = FACE_OUTER_BOUND ( 'NONE', #24, .T. ) ;
#246 = CARTESIAN_POINT ( 'NONE',  ( 3.000000000000000444, 3.673940397442060361E-16, 0.000000000000000000 ) ) ;
#247 = FACE_BOUND ( 'NONE', #106, .T. ) ;
#248 = CYLINDRICAL_SURFACE ( 'NONE', #139, 3.000000000000000444 ) ;
#249 = DIRECTION ( 'NONE',  ( -1.000000000000000000, 0.000000000000000000, 0.000000000000000000 ) ) ;
#250 = SECURITY_CLASSIFICATION ( '', '', #43 ) ;
#251 = DATE_AND_TIME ( #14, #34 ) ;
#252 = COORDINATED_UNIVERSAL_TIME_OFFSET ( 1, 0, .AHEAD. ) ;
#253 = APPROVAL_STATUS ( 'not_yet_approved' ) ;
#254 = EDGE_CURVE ( 'NONE', #235, #140, #165, .T. ) ;
#255 = APPLICATION_PROTOCOL_DEFINITION ( 'international standard', 'config_control_design', 1994, #40 ) ;
ENDSEC;
END-ISO-10303-21;
