ISO-10303-21;
HEADER;
FILE_DESCRIPTION (( 'STEP AP203' ),
    '1' );
FILE_NAME ('6f94.STEP',
    '2023-02-13T15:57:31',
    ( '' ),
    ( '' ),
    'SwSTEP 2.0',
    'SolidWorks 2019',
    '' );
FILE_SCHEMA (( 'CONFIG_CONTROL_DESIGN' ));
ENDSEC;

DATA;
#1 = APPLICATION_CONTEXT ( 'configuration controlled 3d designs of mechanical parts and assemblies' ) ;
#2 = PRODUCT ( '6f94', '6f94', '', ( #252 ) ) ;
#3 = ORIENTED_EDGE ( 'NONE', *, *, #61, .T. ) ;
#4 = LINE ( 'NONE', #166, #193 ) ;
#5 = CC_DESIGN_PERSON_AND_ORGANIZATION_ASSIGNMENT ( #112, #95, ( #147 ) ) ;
#6 = AXIS2_PLACEMENT_3D ( 'NONE', #114, #194, #232 ) ;
#7 = EDGE_LOOP ( 'NONE', ( #68, #146, #67, #186 ) ) ;
#8 = ORIENTED_EDGE ( 'NONE', *, *, #104, .F. ) ;
#9 = EDGE_LOOP ( 'NONE', ( #82, #3, #66, #181 ) ) ;
#10 = AXIS2_PLACEMENT_3D ( 'NONE', #56, #214, #97 ) ;
#11 = DIRECTION ( 'NONE',  ( 0.000000000000000000, 0.000000000000000000, 1.000000000000000000 ) ) ;
#12 = PERSON_AND_ORGANIZATION ( #120, #27 ) ;
#13 = DIRECTION ( 'NONE',  ( 1.000000000000000000, 0.000000000000000000, 0.000000000000000000 ) ) ;
#14 = CALENDAR_DATE ( 2023, 13, 2 ) ;
#15 = EDGE_CURVE ( 'NONE', #45, #145, #103, .T. ) ;
#16 = CC_DESIGN_APPROVAL ( #46, ( #108 ) ) ;
#17 = COORDINATED_UNIVERSAL_TIME_OFFSET ( 1, 0, .AHEAD. ) ;
#18 = PERSON_AND_ORGANIZATION ( #120, #27 ) ;
#19 = DIRECTION ( 'NONE',  ( 1.000000000000000000, 0.000000000000000000, 0.000000000000000000 ) ) ;
#20 = CARTESIAN_POINT ( 'NONE',  ( 0.000000000000000000, 0.000000000000000000, 0.000000000000000000 ) ) ;
#21 = VECTOR ( 'NONE', #249, 1000.000000000000000 ) ;
#22 = CIRCLE ( 'NONE', #42, 2.500000000000000000 ) ;
#23 = EDGE_LOOP ( 'NONE', ( #148, #221 ) ) ;
#24 = DIRECTION ( 'NONE',  ( 1.000000000000000000, 0.000000000000000000, -0.000000000000000000 ) ) ;
#25 = EDGE_CURVE ( 'NONE', #126, #83, #235, .T. ) ;
#26 = DIRECTION ( 'NONE',  ( 1.000000000000000000, 0.000000000000000000, 0.000000000000000000 ) ) ;
#27 = ORGANIZATION ( 'NEURÈENÝ', 'NEURÈENÝ', '' ) ;
#28 = ORIENTED_EDGE ( 'NONE', *, *, #208, .T. ) ;
#29 = CARTESIAN_POINT ( 'NONE',  ( 2.500000000000000000, 3.061616997868383141E-16, 0.000000000000000000 ) ) ;
#30 = CARTESIAN_POINT ( 'NONE',  ( -1.250000000000000000, 0.000000000000000000, 2.000000000000000000 ) ) ;
#31 = COORDINATED_UNIVERSAL_TIME_OFFSET ( 1, 0, .AHEAD. ) ;
#32 = EDGE_CURVE ( 'NONE', #240, #162, #173, .T. ) ;
#33 = DATE_AND_TIME ( #250, #157 ) ;
#34 = APPROVAL_PERSON_ORGANIZATION ( #35, #46, #175 ) ;
#35 = PERSON_AND_ORGANIZATION ( #120, #27 ) ;
#36 = DIRECTION ( 'NONE',  ( -1.000000000000000000, 0.000000000000000000, 0.000000000000000000 ) ) ;
#37 = FACE_OUTER_BOUND ( 'NONE', #23, .T. ) ;
#38 = DIRECTION ( 'NONE',  ( 0.000000000000000000, 0.000000000000000000, 1.000000000000000000 ) ) ;
#39 = APPROVAL_PERSON_ORGANIZATION ( #12, #99, #233 ) ;
#40 = ADVANCED_FACE ( 'NONE', ( #218 ), #102, .T. ) ;
#41 = DIRECTION ( 'NONE',  ( 0.000000000000000000, 0.000000000000000000, 1.000000000000000000 ) ) ;
#42 = AXIS2_PLACEMENT_3D ( 'NONE', #20, #98, #13 ) ;
#43 = DIRECTION ( 'NONE',  ( 1.000000000000000000, 0.000000000000000000, 0.000000000000000000 ) ) ;
#44 = ORIENTED_EDGE ( 'NONE', *, *, #200, .F. ) ;
#45 = VERTEX_POINT ( 'NONE', #244 ) ;
#46 = APPROVAL ( #96, 'NEURÈENÝ' ) ;
#47 = AXIS2_PLACEMENT_3D ( 'NONE', #49, #88, #50 ) ;
#48 = CARTESIAN_POINT ( 'NONE',  ( -2.500000000000000000, 0.000000000000000000, 2.000000000000000000 ) ) ;
#49 = CARTESIAN_POINT ( 'NONE',  ( 0.000000000000000000, 0.000000000000000000, 2.000000000000000000 ) ) ;
#50 = DIRECTION ( 'NONE',  ( 1.000000000000000000, 0.000000000000000000, 0.000000000000000000 ) ) ;
#51 = AXIS2_PLACEMENT_3D ( 'NONE', #201, #143, #219 ) ;
#52 = EDGE_CURVE ( 'NONE', #126, #45, #101, .T. ) ;
#53 = DATE_AND_TIME ( #137, #168 ) ;
#54 = PERSON_AND_ORGANIZATION_ROLE ( 'design_supplier' ) ;
#55 = PERSON_AND_ORGANIZATION ( #120, #27 ) ;
#56 = CARTESIAN_POINT ( 'NONE',  ( 0.000000000000000000, 0.000000000000000000, 200.0000000000000000 ) ) ;
#57 = CC_DESIGN_APPROVAL ( #116, ( #163 ) ) ;
#58 = DATE_TIME_ROLE ( 'creation_date' ) ;
#59 = CARTESIAN_POINT ( 'NONE',  ( 0.000000000000000000, 0.000000000000000000, 200.0000000000000000 ) ) ;
#60 = CARTESIAN_POINT ( 'NONE',  ( -2.500000000000000000, 0.000000000000000000, 2.000000000000000000 ) ) ;
#61 = EDGE_CURVE ( 'NONE', #83, #145, #4, .T. ) ;
#62 = CIRCLE ( 'NONE', #118, 1.250000000000000000 ) ;
#63 = ORIENTED_EDGE ( 'NONE', *, *, #238, .T. ) ;
#64 = EDGE_LOOP ( 'NONE', ( #86, #106, #141, #100 ) ) ;
#65 = AXIS2_PLACEMENT_3D ( 'NONE', #176, #237, #247 ) ;
#66 = ORIENTED_EDGE ( 'NONE', *, *, #251, .T. ) ;
#67 = ORIENTED_EDGE ( 'NONE', *, *, #52, .T. ) ;
#68 = ORIENTED_EDGE ( 'NONE', *, *, #61, .F. ) ;
#69 = AXIS2_PLACEMENT_3D ( 'NONE', #216, #38, #234 ) ;
#70 = DIRECTION ( 'NONE',  ( 0.000000000000000000, 0.000000000000000000, 1.000000000000000000 ) ) ;
#71 = CARTESIAN_POINT ( 'NONE',  ( 1.250000000000000000, 1.530808498934191571E-16, 200.0000000000000000 ) ) ;
#72 = APPROVAL_DATE_TIME ( #236, #46 ) ;
#73 = CC_DESIGN_DATE_AND_TIME_ASSIGNMENT ( #33, #58, ( #163 ) ) ;
#74 = APPROVAL_STATUS ( 'not_yet_approved' ) ;
#75 = COORDINATED_UNIVERSAL_TIME_OFFSET ( 1, 0, .AHEAD. ) ;
#76 = CARTESIAN_POINT ( 'NONE',  ( 0.000000000000000000, 0.000000000000000000, 2.000000000000000000 ) ) ;
#77 = AXIS2_PLACEMENT_3D ( 'NONE', #76, #255, #246 ) ;
#78 = DIRECTION ( 'NONE',  ( 0.000000000000000000, 0.000000000000000000, 1.000000000000000000 ) ) ;
#79 =( NAMED_UNIT ( * ) SI_UNIT ( $, .STERADIAN. ) SOLID_ANGLE_UNIT ( ) );
#80 = ADVANCED_FACE ( 'NONE', ( #242 ), #139, .T. ) ;
#81 = CIRCLE ( 'NONE', #69, 1.250000000000000000 ) ;
#82 = ORIENTED_EDGE ( 'NONE', *, *, #222, .F. ) ;
#83 = VERTEX_POINT ( 'NONE', #253 ) ;
#84 = DIRECTION ( 'NONE',  ( 0.000000000000000000, 0.000000000000000000, 1.000000000000000000 ) ) ;
#85 = ADVANCED_FACE ( 'NONE', ( #127 ), #207, .T. ) ;
#86 = ORIENTED_EDGE ( 'NONE', *, *, #208, .F. ) ;
#87 = CARTESIAN_POINT ( 'NONE',  ( 0.000000000000000000, 0.000000000000000000, 2.000000000000000000 ) ) ;
#88 = DIRECTION ( 'NONE',  ( 0.000000000000000000, 0.000000000000000000, 1.000000000000000000 ) ) ;
#89 = CC_DESIGN_DATE_AND_TIME_ASSIGNMENT ( #248, #213, ( #108 ) ) ;
#90 = SECURITY_CLASSIFICATION_LEVEL ( 'unclassified' ) ;
#91 =( LENGTH_UNIT ( ) NAMED_UNIT ( * ) SI_UNIT ( .MILLI., .METRE. ) );
#92 = PERSON_AND_ORGANIZATION_ROLE ( 'design_owner' ) ;
#93 = VECTOR ( 'NONE', #182, 1000.000000000000000 ) ;
#94 = CC_DESIGN_APPROVAL ( #99, ( #147 ) ) ;
#95 = PERSON_AND_ORGANIZATION_ROLE ( 'creator' ) ;
#96 = APPROVAL_STATUS ( 'not_yet_approved' ) ;
#97 = DIRECTION ( 'NONE',  ( -1.000000000000000000, 0.000000000000000000, 0.000000000000000000 ) ) ;
#98 = DIRECTION ( 'NONE',  ( 0.000000000000000000, 0.000000000000000000, 1.000000000000000000 ) ) ;
#99 = APPROVAL ( #74, 'NEURÈENÝ' ) ;
#100 = ORIENTED_EDGE ( 'NONE', *, *, #104, .T. ) ;
#101 = LINE ( 'NONE', #48, #93 ) ;
#102 = PLANE ( 'NONE',  #198 ) ;
#103 = CIRCLE ( 'NONE', #129, 2.500000000000000000 ) ;
#104 = EDGE_CURVE ( 'NONE', #239, #184, #81, .T. ) ;
#105 = CARTESIAN_POINT ( 'NONE',  ( 0.000000000000000000, 0.000000000000000000, 200.0000000000000000 ) ) ;
#106 = ORIENTED_EDGE ( 'NONE', *, *, #238, .F. ) ;
#107 = PLANE ( 'NONE',  #135 ) ;
#108 = SECURITY_CLASSIFICATION ( '', '', #90 ) ;
#109 = CARTESIAN_POINT ( 'NONE',  ( 1.250000000000000000, 1.530808498934191571E-16, 200.0000000000000000 ) ) ;
#110 = APPROVAL_DATE_TIME ( #174, #99 ) ;
#111 = APPROVAL_ROLE ( '' ) ;
#112 = PERSON_AND_ORGANIZATION ( #120, #27 ) ;
#113 = DIRECTION ( 'NONE',  ( -0.000000000000000000, -0.000000000000000000, -1.000000000000000000 ) ) ;
#114 = CARTESIAN_POINT ( 'NONE',  ( 0.000000000000000000, 0.000000000000000000, 0.000000000000000000 ) ) ;
#115 = CARTESIAN_POINT ( 'NONE',  ( 0.000000000000000000, 0.000000000000000000, 0.000000000000000000 ) ) ;
#116 = APPROVAL ( #155, 'NEURÈENÝ' ) ;
#117 = CYLINDRICAL_SURFACE ( 'NONE', #65, 1.250000000000000000 ) ;
#118 = AXIS2_PLACEMENT_3D ( 'NONE', #59, #215, #210 ) ;
#119 = PRODUCT_DEFINITION_SHAPE ( 'NONE', 'NONE',  #163 ) ;
#120 = PERSON ( 'NEURÈENÝ', 'NEURÈENÝ', 'NEURÈENÝ', ('NEURÈENÝ'), ('NEURÈENÝ'), ('NEURÈENÝ') ) ;
#121 = ORIENTED_EDGE ( 'NONE', *, *, #132, .T. ) ;
#122 = EDGE_LOOP ( 'NONE', ( #63, #123 ) ) ;
#123 = ORIENTED_EDGE ( 'NONE', *, *, #32, .T. ) ;
#124 = CC_DESIGN_PERSON_AND_ORGANIZATION_ASSIGNMENT ( #133, #134, ( #108 ) ) ;
#125 = ORIENTED_EDGE ( 'NONE', *, *, #32, .F. ) ;
#126 = VERTEX_POINT ( 'NONE', #60 ) ;
#127 = FACE_OUTER_BOUND ( 'NONE', #7, .T. ) ;
#128 = LINE ( 'NONE', #71, #142 ) ;
#129 = AXIS2_PLACEMENT_3D ( 'NONE', #167, #245, #26 ) ;
#130 = APPROVAL_DATE_TIME ( #53, #116 ) ;
#131 = CALENDAR_DATE ( 2023, 13, 2 ) ;
#132 = EDGE_CURVE ( 'NONE', #184, #239, #212, .T. ) ;
#133 = PERSON_AND_ORGANIZATION ( #120, #27 ) ;
#134 = PERSON_AND_ORGANIZATION_ROLE ( 'classification_officer' ) ;
#135 = AXIS2_PLACEMENT_3D ( 'NONE', #169, #70, #136 ) ;
#136 = DIRECTION ( 'NONE',  ( 1.000000000000000000, 0.000000000000000000, -0.000000000000000000 ) ) ;
#137 = CALENDAR_DATE ( 2023, 13, 2 ) ;
#138 = FACE_OUTER_BOUND ( 'NONE', #161, .T. ) ;
#139 = CYLINDRICAL_SURFACE ( 'NONE', #177, 2.500000000000000000 ) ;
#140 = UNCERTAINTY_MEASURE_WITH_UNIT (LENGTH_MEASURE( 1.000000000000000082E-05 ), #91, 'distance_accuracy_value', 'NONE');
#141 = ORIENTED_EDGE ( 'NONE', *, *, #200, .T. ) ;
#142 = VECTOR ( 'NONE', #150, 1000.000000000000000 ) ;
#143 = DIRECTION ( 'NONE',  ( 0.000000000000000000, 0.000000000000000000, 1.000000000000000000 ) ) ;
#144 = CC_DESIGN_PERSON_AND_ORGANIZATION_ASSIGNMENT ( #55, #92, ( #2 ) ) ;
#145 = VERTEX_POINT ( 'NONE', #29 ) ;
#146 = ORIENTED_EDGE ( 'NONE', *, *, #25, .F. ) ;
#147 = PRODUCT_DEFINITION_FORMATION_WITH_SPECIFIED_SOURCE ( 'LIBOVOLNÝ', '', #2, .NOT_KNOWN. ) ;
#148 = ORIENTED_EDGE ( 'NONE', *, *, #15, .F. ) ;
#149 = FACE_OUTER_BOUND ( 'NONE', #220, .T. ) ;
#150 = DIRECTION ( 'NONE',  ( -0.000000000000000000, -0.000000000000000000, -1.000000000000000000 ) ) ;
#151 = APPLICATION_PROTOCOL_DEFINITION ( 'international standard', 'config_control_design', 1994, #1 ) ;
#152 =( NAMED_UNIT ( * ) PLANE_ANGLE_UNIT ( ) SI_UNIT ( $, .RADIAN. ) );
#153 = ADVANCED_FACE ( 'NONE', ( #199 ), #158, .T. ) ;
#154 = PERSON_AND_ORGANIZATION_ROLE ( 'creator' ) ;
#155 = APPROVAL_STATUS ( 'not_yet_approved' ) ;
#156 = COORDINATED_UNIVERSAL_TIME_OFFSET ( 1, 0, .AHEAD. ) ;
#157 = LOCAL_TIME ( 16, 57, 31.00000000000000000, #31 ) ;
#158 = CYLINDRICAL_SURFACE ( 'NONE', #10, 1.250000000000000000 ) ;
#159 = FACE_BOUND ( 'NONE', #224, .T. ) ;
#160 = CC_DESIGN_SECURITY_CLASSIFICATION ( #108, ( #147 ) ) ;
#161 = EDGE_LOOP ( 'NONE', ( #206, #185 ) ) ;
#162 = VERTEX_POINT ( 'NONE', #170 ) ;
#163 = PRODUCT_DEFINITION ( 'NEZNÁMÝ', '', #147, #180 ) ;
#164 = AXIS2_PLACEMENT_3D ( 'NONE', #115, #78, #197 ) ;
#165 = DIRECTION ( 'NONE',  ( -0.000000000000000000, -0.000000000000000000, -1.000000000000000000 ) ) ;
#166 = CARTESIAN_POINT ( 'NONE',  ( 2.500000000000000000, 3.061616997868383141E-16, 2.000000000000000000 ) ) ;
#167 = CARTESIAN_POINT ( 'NONE',  ( 0.000000000000000000, 0.000000000000000000, 0.000000000000000000 ) ) ;
#168 = LOCAL_TIME ( 16, 57, 31.00000000000000000, #17 ) ;
#169 = CARTESIAN_POINT ( 'NONE',  ( 0.000000000000000000, 0.000000000000000000, 2.000000000000000000 ) ) ;
#170 = CARTESIAN_POINT ( 'NONE',  ( -1.250000000000000000, 0.000000000000000000, 200.0000000000000000 ) ) ;
#171 = PERSON_AND_ORGANIZATION ( #120, #27 ) ;
#172 = ADVANCED_FACE ( 'NONE', ( #149 ), #117, .T. ) ;
#173 = CIRCLE ( 'NONE', #230, 1.250000000000000000 ) ;
#174 = DATE_AND_TIME ( #14, #187 ) ;
#175 = APPROVAL_ROLE ( '' ) ;
#176 = CARTESIAN_POINT ( 'NONE',  ( 0.000000000000000000, 0.000000000000000000, 200.0000000000000000 ) ) ;
#177 = AXIS2_PLACEMENT_3D ( 'NONE', #87, #113, #36 ) ;
#178 = ADVANCED_FACE ( 'NONE', ( #159, #138 ), #107, .T. ) ;
#179 = APPLICATION_CONTEXT ( 'configuration controlled 3d designs of mechanical parts and assemblies' ) ;
#180 = DESIGN_CONTEXT ( 'detailed design', #179, 'design' ) ;
#181 = ORIENTED_EDGE ( 'NONE', *, *, #52, .F. ) ;
#182 = DIRECTION ( 'NONE',  ( -0.000000000000000000, -0.000000000000000000, -1.000000000000000000 ) ) ;
#183 = AXIS2_PLACEMENT_3D ( 'NONE', #196, #11, #19 ) ;
#184 = VERTEX_POINT ( 'NONE', #188 ) ;
#185 = ORIENTED_EDGE ( 'NONE', *, *, #222, .T. ) ;
#186 = ORIENTED_EDGE ( 'NONE', *, *, #15, .T. ) ;
#187 = LOCAL_TIME ( 16, 57, 31.00000000000000000, #156 ) ;
#188 = CARTESIAN_POINT ( 'NONE',  ( 1.250000000000000000, 1.530808498934191571E-16, 2.000000000000000000 ) ) ;
#189 = PLANE ( 'NONE',  #164 ) ;
#190 = CC_DESIGN_PERSON_AND_ORGANIZATION_ASSIGNMENT ( #18, #154, ( #163 ) ) ;
#191 = MANIFOLD_SOLID_BREP ( 'Pøidat vysunutím3', #241 ) ;
#192 = PERSON_AND_ORGANIZATION ( #120, #27 ) ;
#193 = VECTOR ( 'NONE', #165, 1000.000000000000000 ) ;
#194 = DIRECTION ( 'NONE',  ( 0.000000000000000000, 0.000000000000000000, 1.000000000000000000 ) ) ;
#195 = COORDINATED_UNIVERSAL_TIME_OFFSET ( 1, 0, .AHEAD. ) ;
#196 = CARTESIAN_POINT ( 'NONE',  ( 0.000000000000000000, 0.000000000000000000, 2.000000000000000000 ) ) ;
#197 = DIRECTION ( 'NONE',  ( 1.000000000000000000, 0.000000000000000000, -0.000000000000000000 ) ) ;
#198 = AXIS2_PLACEMENT_3D ( 'NONE', #105, #41, #24 ) ;
#199 = FACE_OUTER_BOUND ( 'NONE', #64, .T. ) ;
#200 = EDGE_CURVE ( 'NONE', #162, #239, #226, .T. ) ;
#201 = CARTESIAN_POINT ( 'NONE',  ( 0.000000000000000000, 0.000000000000000000, 2.000000000000000000 ) ) ;
#202 = CARTESIAN_POINT ( 'NONE',  ( 0.000000000000000000, 0.000000000000000000, 200.0000000000000000 ) ) ;
#203 = LOCAL_TIME ( 16, 57, 31.00000000000000000, #75 ) ;
#204 = APPROVAL_PERSON_ORGANIZATION ( #192, #116, #111 ) ;
#205 = ORIENTED_EDGE ( 'NONE', *, *, #132, .F. ) ;
#206 = ORIENTED_EDGE ( 'NONE', *, *, #25, .T. ) ;
#207 = CYLINDRICAL_SURFACE ( 'NONE', #77, 2.500000000000000000 ) ;
#208 = EDGE_CURVE ( 'NONE', #240, #184, #128, .T. ) ;
#209 = CIRCLE ( 'NONE', #47, 2.500000000000000000 ) ;
#210 = DIRECTION ( 'NONE',  ( 1.000000000000000000, 0.000000000000000000, 0.000000000000000000 ) ) ;
#211 = CALENDAR_DATE ( 2023, 13, 2 ) ;
#212 = CIRCLE ( 'NONE', #183, 1.250000000000000000 ) ;
#213 = DATE_TIME_ROLE ( 'classification_date' ) ;
#214 = DIRECTION ( 'NONE',  ( -0.000000000000000000, -0.000000000000000000, -1.000000000000000000 ) ) ;
#215 = DIRECTION ( 'NONE',  ( 0.000000000000000000, 0.000000000000000000, 1.000000000000000000 ) ) ;
#216 = CARTESIAN_POINT ( 'NONE',  ( 0.000000000000000000, 0.000000000000000000, 2.000000000000000000 ) ) ;
#217 = CC_DESIGN_PERSON_AND_ORGANIZATION_ASSIGNMENT ( #171, #54, ( #147 ) ) ;
#218 = FACE_OUTER_BOUND ( 'NONE', #122, .T. ) ;
#219 = DIRECTION ( 'NONE',  ( 1.000000000000000000, 0.000000000000000000, 0.000000000000000000 ) ) ;
#220 = EDGE_LOOP ( 'NONE', ( #125, #28, #121, #44 ) ) ;
#221 = ORIENTED_EDGE ( 'NONE', *, *, #251, .F. ) ;
#222 = EDGE_CURVE ( 'NONE', #83, #126, #209, .T. ) ;
#223 =( GEOMETRIC_REPRESENTATION_CONTEXT ( 3 ) GLOBAL_UNCERTAINTY_ASSIGNED_CONTEXT ( ( #140 ) ) GLOBAL_UNIT_ASSIGNED_CONTEXT ( ( #91, #152, #79 ) ) REPRESENTATION_CONTEXT ( 'NONE', 'WORKASPACE' ) );
#224 = EDGE_LOOP ( 'NONE', ( #8, #205 ) ) ;
#225 = ADVANCED_BREP_SHAPE_REPRESENTATION ( '6f94', ( #191, #6 ), #223 ) ;
#226 = LINE ( 'NONE', #228, #21 ) ;
#227 = PRODUCT_RELATED_PRODUCT_CATEGORY ( 'detail', '', ( #2 ) ) ;
#228 = CARTESIAN_POINT ( 'NONE',  ( -1.250000000000000000, 0.000000000000000000, 200.0000000000000000 ) ) ;
#229 = SHAPE_DEFINITION_REPRESENTATION ( #119, #225 ) ;
#230 = AXIS2_PLACEMENT_3D ( 'NONE', #202, #84, #43 ) ;
#231 = APPLICATION_PROTOCOL_DEFINITION ( 'international standard', 'config_control_design', 1994, #179 ) ;
#232 = DIRECTION ( 'NONE',  ( 1.000000000000000000, 0.000000000000000000, 0.000000000000000000 ) ) ;
#233 = APPROVAL_ROLE ( '' ) ;
#234 = DIRECTION ( 'NONE',  ( 1.000000000000000000, 0.000000000000000000, 0.000000000000000000 ) ) ;
#235 = CIRCLE ( 'NONE', #51, 2.500000000000000000 ) ;
#236 = DATE_AND_TIME ( #131, #203 ) ;
#237 = DIRECTION ( 'NONE',  ( -0.000000000000000000, -0.000000000000000000, -1.000000000000000000 ) ) ;
#238 = EDGE_CURVE ( 'NONE', #162, #240, #62, .T. ) ;
#239 = VERTEX_POINT ( 'NONE', #30 ) ;
#240 = VERTEX_POINT ( 'NONE', #109 ) ;
#241 = CLOSED_SHELL ( 'NONE', ( #172, #80, #85, #178, #243, #153, #40 ) ) ;
#242 = FACE_OUTER_BOUND ( 'NONE', #9, .T. ) ;
#243 = ADVANCED_FACE ( 'NONE', ( #37 ), #189, .F. ) ;
#244 = CARTESIAN_POINT ( 'NONE',  ( -2.500000000000000000, 0.000000000000000000, 0.000000000000000000 ) ) ;
#245 = DIRECTION ( 'NONE',  ( 0.000000000000000000, 0.000000000000000000, 1.000000000000000000 ) ) ;
#246 = DIRECTION ( 'NONE',  ( -1.000000000000000000, 0.000000000000000000, 0.000000000000000000 ) ) ;
#247 = DIRECTION ( 'NONE',  ( -1.000000000000000000, 0.000000000000000000, 0.000000000000000000 ) ) ;
#248 = DATE_AND_TIME ( #211, #254 ) ;
#249 = DIRECTION ( 'NONE',  ( -0.000000000000000000, -0.000000000000000000, -1.000000000000000000 ) ) ;
#250 = CALENDAR_DATE ( 2023, 13, 2 ) ;
#251 = EDGE_CURVE ( 'NONE', #145, #45, #22, .T. ) ;
#252 = MECHANICAL_CONTEXT ( 'NONE', #1, 'mechanical' ) ;
#253 = CARTESIAN_POINT ( 'NONE',  ( 2.500000000000000000, 3.061616997868383141E-16, 2.000000000000000000 ) ) ;
#254 = LOCAL_TIME ( 16, 57, 31.00000000000000000, #195 ) ;
#255 = DIRECTION ( 'NONE',  ( -0.000000000000000000, -0.000000000000000000, -1.000000000000000000 ) ) ;
ENDSEC;
END-ISO-10303-21;
