ISO-10303-21;
HEADER;
FILE_DESCRIPTION (( 'STEP AP203' ),
    '1' );
FILE_NAME ('6bc7.STEP',
    '2023-01-31T14:32:20',
    ( '' ),
    ( '' ),
    'SwSTEP 2.0',
    'SolidWorks 2019',
    '' );
FILE_SCHEMA (( 'CONFIG_CONTROL_DESIGN' ));
ENDSEC;

DATA;
#1 = PERSON_AND_ORGANIZATION ( #238, #28 ) ;
#2 = LOCAL_TIME ( 15, 32, 20.00000000000000000, #71 ) ;
#3 =( NAMED_UNIT ( * ) SI_UNIT ( $, .STERADIAN. ) SOLID_ANGLE_UNIT ( ) );
#4 = PERSON_AND_ORGANIZATION ( #238, #28 ) ;
#5 = APPLICATION_CONTEXT ( 'configuration controlled 3d designs of mechanical parts and assemblies' ) ;
#6 = DATE_AND_TIME ( #197, #32 ) ;
#7 = CIRCLE ( 'NONE', #184, 1.250000000000000000 ) ;
#8 = EDGE_CURVE ( 'NONE', #127, #165, #74, .T. ) ;
#9 = ORIENTED_EDGE ( 'NONE', *, *, #75, .F. ) ;
#10 = AXIS2_PLACEMENT_3D ( 'NONE', #105, #156, #159 ) ;
#11 = APPLICATION_CONTEXT ( 'configuration controlled 3d designs of mechanical parts and assemblies' ) ;
#12 = EDGE_LOOP ( 'NONE', ( #199, #144 ) ) ;
#13 = EDGE_CURVE ( 'NONE', #165, #55, #175, .T. ) ;
#14 = ADVANCED_BREP_SHAPE_REPRESENTATION ( '6bc7', ( #173, #141 ), #89 ) ;
#15 = ORIENTED_EDGE ( 'NONE', *, *, #13, .F. ) ;
#16 = AXIS2_PLACEMENT_3D ( 'NONE', #61, #209, #117 ) ;
#17 = ADVANCED_FACE ( 'NONE', ( #249 ), #34, .T. ) ;
#18 = DIRECTION ( 'NONE',  ( 0.000000000000000000, 0.000000000000000000, 1.000000000000000000 ) ) ;
#19 = FACE_OUTER_BOUND ( 'NONE', #227, .T. ) ;
#20 = CARTESIAN_POINT ( 'NONE',  ( 0.000000000000000000, 0.000000000000000000, 1.199999999999999956 ) ) ;
#21 = CIRCLE ( 'NONE', #80, 0.5000000000000000000 ) ;
#22 = VECTOR ( 'NONE', #189, 1000.000000000000000 ) ;
#23 = DIRECTION ( 'NONE',  ( 0.000000000000000000, 0.000000000000000000, 1.000000000000000000 ) ) ;
#24 = DIRECTION ( 'NONE',  ( 1.000000000000000000, 0.000000000000000000, 0.000000000000000000 ) ) ;
#25 = CC_DESIGN_PERSON_AND_ORGANIZATION_ASSIGNMENT ( #4, #27, ( #246 ) ) ;
#26 = ORIENTED_EDGE ( 'NONE', *, *, #96, .T. ) ;
#27 = PERSON_AND_ORGANIZATION_ROLE ( 'creator' ) ;
#28 = ORGANIZATION ( 'NEURÈENÝ', 'NEURÈENÝ', '' ) ;
#29 = ORIENTED_EDGE ( 'NONE', *, *, #8, .T. ) ;
#30 = PERSON_AND_ORGANIZATION_ROLE ( 'classification_officer' ) ;
#31 = DIRECTION ( 'NONE',  ( -0.000000000000000000, -0.000000000000000000, -1.000000000000000000 ) ) ;
#32 = LOCAL_TIME ( 15, 32, 20.00000000000000000, #124 ) ;
#33 = VECTOR ( 'NONE', #171, 1000.000000000000000 ) ;
#34 = CYLINDRICAL_SURFACE ( 'NONE', #250, 1.250000000000000000 ) ;
#35 = APPROVAL_DATE_TIME ( #248, #139 ) ;
#36 = EDGE_LOOP ( 'NONE', ( #15, #244 ) ) ;
#37 = LINE ( 'NONE', #84, #33 ) ;
#38 = CARTESIAN_POINT ( 'NONE',  ( 0.5000000000000000000, 6.123233995736766036E-17, 100.0000000000000000 ) ) ;
#39 = FACE_OUTER_BOUND ( 'NONE', #222, .T. ) ;
#40 = UNCERTAINTY_MEASURE_WITH_UNIT (LENGTH_MEASURE( 1.000000000000000082E-05 ), #42, 'distance_accuracy_value', 'NONE');
#41 = DIRECTION ( 'NONE',  ( 1.000000000000000000, 0.000000000000000000, 0.000000000000000000 ) ) ;
#42 =( LENGTH_UNIT ( ) NAMED_UNIT ( * ) SI_UNIT ( .MILLI., .METRE. ) );
#43 = APPLICATION_PROTOCOL_DEFINITION ( 'international standard', 'config_control_design', 1994, #11 ) ;
#44 = ORIENTED_EDGE ( 'NONE', *, *, #190, .F. ) ;
#45 = CIRCLE ( 'NONE', #81, 1.250000000000000000 ) ;
#46 = CC_DESIGN_APPROVAL ( #139, ( #216 ) ) ;
#47 = ORIENTED_EDGE ( 'NONE', *, *, #60, .T. ) ;
#48 =( NAMED_UNIT ( * ) PLANE_ANGLE_UNIT ( ) SI_UNIT ( $, .RADIAN. ) );
#49 = APPROVAL_DATE_TIME ( #220, #212 ) ;
#50 = ORIENTED_EDGE ( 'NONE', *, *, #8, .F. ) ;
#51 = CC_DESIGN_SECURITY_CLASSIFICATION ( #216, ( #224 ) ) ;
#52 = CC_DESIGN_DATE_AND_TIME_ASSIGNMENT ( #99, #245, ( #216 ) ) ;
#53 = CARTESIAN_POINT ( 'NONE',  ( 0.5000000000000000000, 6.123233995736766036E-17, 100.0000000000000000 ) ) ;
#54 = CARTESIAN_POINT ( 'NONE',  ( 1.250000000000000000, 1.530808498934191571E-16, 0.000000000000000000 ) ) ;
#55 = VERTEX_POINT ( 'NONE', #54 ) ;
#56 = DESIGN_CONTEXT ( 'detailed design', #5, 'design' ) ;
#57 = CARTESIAN_POINT ( 'NONE',  ( -0.5000000000000000000, 0.000000000000000000, 1.199999999999999956 ) ) ;
#58 = LOCAL_TIME ( 15, 32, 20.00000000000000000, #78 ) ;
#59 = DIRECTION ( 'NONE',  ( 1.000000000000000000, 0.000000000000000000, 0.000000000000000000 ) ) ;
#60 = EDGE_CURVE ( 'NONE', #133, #149, #200, .T. ) ;
#61 = CARTESIAN_POINT ( 'NONE',  ( 0.000000000000000000, 0.000000000000000000, 100.0000000000000000 ) ) ;
#62 = APPROVAL_PERSON_ORGANIZATION ( #177, #185, #128 ) ;
#63 = FACE_BOUND ( 'NONE', #12, .T. ) ;
#64 = CC_DESIGN_PERSON_AND_ORGANIZATION_ASSIGNMENT ( #1, #160, ( #224 ) ) ;
#65 = ORIENTED_EDGE ( 'NONE', *, *, #75, .T. ) ;
#66 = DIRECTION ( 'NONE',  ( 1.000000000000000000, 0.000000000000000000, 0.000000000000000000 ) ) ;
#67 = AXIS2_PLACEMENT_3D ( 'NONE', #20, #103, #254 ) ;
#68 = AXIS2_PLACEMENT_3D ( 'NONE', #231, #207, #170 ) ;
#69 = DIRECTION ( 'NONE',  ( 1.000000000000000000, 0.000000000000000000, 0.000000000000000000 ) ) ;
#70 = CC_DESIGN_PERSON_AND_ORGANIZATION_ASSIGNMENT ( #132, #30, ( #216 ) ) ;
#71 = COORDINATED_UNIVERSAL_TIME_OFFSET ( 1, 0, .AHEAD. ) ;
#72 = CALENDAR_DATE ( 2023, 31, 1 ) ;
#73 = ORIENTED_EDGE ( 'NONE', *, *, #130, .T. ) ;
#74 = LINE ( 'NONE', #206, #145 ) ;
#75 = EDGE_CURVE ( 'NONE', #178, #149, #77, .T. ) ;
#76 = CALENDAR_DATE ( 2023, 31, 1 ) ;
#77 = LINE ( 'NONE', #53, #236 ) ;
#78 = COORDINATED_UNIVERSAL_TIME_OFFSET ( 1, 0, .AHEAD. ) ;
#79 = DIRECTION ( 'NONE',  ( -0.000000000000000000, -0.000000000000000000, -1.000000000000000000 ) ) ;
#80 = AXIS2_PLACEMENT_3D ( 'NONE', #188, #101, #59 ) ;
#81 = AXIS2_PLACEMENT_3D ( 'NONE', #251, #234, #41 ) ;
#82 = EDGE_CURVE ( 'NONE', #230, #178, #131, .T. ) ;
#83 = CARTESIAN_POINT ( 'NONE',  ( 0.000000000000000000, 0.000000000000000000, 100.0000000000000000 ) ) ;
#84 = CARTESIAN_POINT ( 'NONE',  ( -0.5000000000000000000, 0.000000000000000000, 100.0000000000000000 ) ) ;
#85 = ADVANCED_FACE ( 'NONE', ( #157 ), #106, .F. ) ;
#86 = CALENDAR_DATE ( 2023, 31, 1 ) ;
#87 = PRODUCT ( '6bc7', '6bc7', '', ( #219 ) ) ;
#88 = APPROVAL_DATE_TIME ( #6, #185 ) ;
#89 =( GEOMETRIC_REPRESENTATION_CONTEXT ( 3 ) GLOBAL_UNCERTAINTY_ASSIGNED_CONTEXT ( ( #40 ) ) GLOBAL_UNIT_ASSIGNED_CONTEXT ( ( #42, #48, #3 ) ) REPRESENTATION_CONTEXT ( 'NONE', 'WORKASPACE' ) );
#90 = CIRCLE ( 'NONE', #208, 1.250000000000000000 ) ;
#91 = AXIS2_PLACEMENT_3D ( 'NONE', #83, #79, #121 ) ;
#92 = DATE_TIME_ROLE ( 'creation_date' ) ;
#93 = ORIENTED_EDGE ( 'NONE', *, *, #111, .F. ) ;
#94 = CARTESIAN_POINT ( 'NONE',  ( 0.000000000000000000, 0.000000000000000000, 100.0000000000000000 ) ) ;
#95 = CARTESIAN_POINT ( 'NONE',  ( 0.000000000000000000, 0.000000000000000000, 0.000000000000000000 ) ) ;
#96 = EDGE_CURVE ( 'NONE', #135, #127, #45, .T. ) ;
#97 = DIRECTION ( 'NONE',  ( 0.000000000000000000, 0.000000000000000000, 1.000000000000000000 ) ) ;
#98 = ORIENTED_EDGE ( 'NONE', *, *, #102, .T. ) ;
#99 = DATE_AND_TIME ( #72, #58 ) ;
#100 = AXIS2_PLACEMENT_3D ( 'NONE', #115, #167, #247 ) ;
#101 = DIRECTION ( 'NONE',  ( 0.000000000000000000, 0.000000000000000000, 1.000000000000000000 ) ) ;
#102 = EDGE_CURVE ( 'NONE', #230, #133, #37, .T. ) ;
#103 = DIRECTION ( 'NONE',  ( 0.000000000000000000, 0.000000000000000000, 1.000000000000000000 ) ) ;
#104 = CIRCLE ( 'NONE', #162, 0.5000000000000000000 ) ;
#105 = CARTESIAN_POINT ( 'NONE',  ( 0.000000000000000000, 0.000000000000000000, 0.000000000000000000 ) ) ;
#106 = PLANE ( 'NONE',  #10 ) ;
#107 = PERSON_AND_ORGANIZATION ( #238, #28 ) ;
#108 = AXIS2_PLACEMENT_3D ( 'NONE', #95, #97, #205 ) ;
#109 = FACE_OUTER_BOUND ( 'NONE', #183, .T. ) ;
#110 = DIRECTION ( 'NONE',  ( 0.000000000000000000, 0.000000000000000000, 1.000000000000000000 ) ) ;
#111 = EDGE_CURVE ( 'NONE', #135, #55, #123, .T. ) ;
#112 = CARTESIAN_POINT ( 'NONE',  ( 0.000000000000000000, 0.000000000000000000, 0.000000000000000000 ) ) ;
#113 = ADVANCED_FACE ( 'NONE', ( #210 ), #140, .T. ) ;
#114 = DIRECTION ( 'NONE',  ( -0.000000000000000000, -0.000000000000000000, -1.000000000000000000 ) ) ;
#115 = CARTESIAN_POINT ( 'NONE',  ( 0.000000000000000000, 0.000000000000000000, 1.199999999999999956 ) ) ;
#116 = CC_DESIGN_DATE_AND_TIME_ASSIGNMENT ( #164, #92, ( #246 ) ) ;
#117 = DIRECTION ( 'NONE',  ( -1.000000000000000000, 0.000000000000000000, 0.000000000000000000 ) ) ;
#118 = CC_DESIGN_PERSON_AND_ORGANIZATION_ASSIGNMENT ( #195, #129, ( #87 ) ) ;
#119 = CYLINDRICAL_SURFACE ( 'NONE', #16, 0.5000000000000000000 ) ;
#120 = PLANE ( 'NONE',  #67 ) ;
#121 = DIRECTION ( 'NONE',  ( -1.000000000000000000, 0.000000000000000000, 0.000000000000000000 ) ) ;
#122 = ADVANCED_FACE ( 'NONE', ( #19 ), #119, .T. ) ;
#123 = LINE ( 'NONE', #233, #22 ) ;
#124 = COORDINATED_UNIVERSAL_TIME_OFFSET ( 1, 0, .AHEAD. ) ;
#125 = PERSON_AND_ORGANIZATION_ROLE ( 'design_supplier' ) ;
#126 = ORIENTED_EDGE ( 'NONE', *, *, #111, .T. ) ;
#127 = VERTEX_POINT ( 'NONE', #191 ) ;
#128 = APPROVAL_ROLE ( '' ) ;
#129 = PERSON_AND_ORGANIZATION_ROLE ( 'design_owner' ) ;
#130 = EDGE_CURVE ( 'NONE', #55, #165, #90, .T. ) ;
#131 = CIRCLE ( 'NONE', #68, 0.5000000000000000000 ) ;
#132 = PERSON_AND_ORGANIZATION ( #238, #28 ) ;
#133 = VERTEX_POINT ( 'NONE', #57 ) ;
#134 = AXIS2_PLACEMENT_3D ( 'NONE', #239, #181, #242 ) ;
#135 = VERTEX_POINT ( 'NONE', #237 ) ;
#136 = CARTESIAN_POINT ( 'NONE',  ( 0.5000000000000000000, 6.123233995736766036E-17, 1.199999999999999956 ) ) ;
#137 = CARTESIAN_POINT ( 'NONE',  ( 0.000000000000000000, 0.000000000000000000, 1.199999999999999956 ) ) ;
#138 = PLANE ( 'NONE',  #187 ) ;
#139 = APPROVAL ( #168, 'NEURÈENÝ' ) ;
#140 = CYLINDRICAL_SURFACE ( 'NONE', #91, 0.5000000000000000000 ) ;
#141 = AXIS2_PLACEMENT_3D ( 'NONE', #112, #110, #69 ) ;
#142 = APPROVAL_STATUS ( 'not_yet_approved' ) ;
#143 = ORIENTED_EDGE ( 'NONE', *, *, #252, .T. ) ;
#144 = ORIENTED_EDGE ( 'NONE', *, *, #252, .F. ) ;
#145 = VECTOR ( 'NONE', #114, 1000.000000000000000 ) ;
#146 = DIRECTION ( 'NONE',  ( 0.000000000000000000, 0.000000000000000000, 1.000000000000000000 ) ) ;
#147 = CARTESIAN_POINT ( 'NONE',  ( 0.000000000000000000, 0.000000000000000000, 1.199999999999999956 ) ) ;
#148 = COORDINATED_UNIVERSAL_TIME_OFFSET ( 1, 0, .AHEAD. ) ;
#149 = VERTEX_POINT ( 'NONE', #136 ) ;
#150 = CC_DESIGN_APPROVAL ( #212, ( #224 ) ) ;
#151 = PERSON_AND_ORGANIZATION ( #238, #28 ) ;
#152 = EDGE_CURVE ( 'NONE', #127, #135, #7, .T. ) ;
#153 = CC_DESIGN_APPROVAL ( #185, ( #246 ) ) ;
#154 = EDGE_LOOP ( 'NONE', ( #215, #240 ) ) ;
#155 = ORIENTED_EDGE ( 'NONE', *, *, #102, .F. ) ;
#156 = DIRECTION ( 'NONE',  ( 0.000000000000000000, 0.000000000000000000, 1.000000000000000000 ) ) ;
#157 = FACE_OUTER_BOUND ( 'NONE', #36, .T. ) ;
#158 = FACE_OUTER_BOUND ( 'NONE', #154, .T. ) ;
#159 = DIRECTION ( 'NONE',  ( 1.000000000000000000, 0.000000000000000000, -0.000000000000000000 ) ) ;
#160 = PERSON_AND_ORGANIZATION_ROLE ( 'creator' ) ;
#161 = CALENDAR_DATE ( 2023, 31, 1 ) ;
#162 = AXIS2_PLACEMENT_3D ( 'NONE', #147, #176, #66 ) ;
#163 = APPROVAL_PERSON_ORGANIZATION ( #107, #212, #213 ) ;
#164 = DATE_AND_TIME ( #86, #201 ) ;
#165 = VERTEX_POINT ( 'NONE', #255 ) ;
#166 = CARTESIAN_POINT ( 'NONE',  ( 0.000000000000000000, 0.000000000000000000, 1.199999999999999956 ) ) ;
#167 = DIRECTION ( 'NONE',  ( 0.000000000000000000, 0.000000000000000000, 1.000000000000000000 ) ) ;
#168 = APPROVAL_STATUS ( 'not_yet_approved' ) ;
#169 = ORIENTED_EDGE ( 'NONE', *, *, #152, .F. ) ;
#170 = DIRECTION ( 'NONE',  ( 1.000000000000000000, 0.000000000000000000, 0.000000000000000000 ) ) ;
#171 = DIRECTION ( 'NONE',  ( -0.000000000000000000, -0.000000000000000000, -1.000000000000000000 ) ) ;
#172 = PRODUCT_DEFINITION_SHAPE ( 'NONE', 'NONE',  #246 ) ;
#173 = MANIFOLD_SOLID_BREP ( 'Pøidat vysunutím3', #223 ) ;
#174 = CARTESIAN_POINT ( 'NONE',  ( -0.5000000000000000000, 0.000000000000000000, 100.0000000000000000 ) ) ;
#175 = CIRCLE ( 'NONE', #108, 1.250000000000000000 ) ;
#176 = DIRECTION ( 'NONE',  ( 0.000000000000000000, 0.000000000000000000, 1.000000000000000000 ) ) ;
#177 = PERSON_AND_ORGANIZATION ( #238, #28 ) ;
#178 = VERTEX_POINT ( 'NONE', #38 ) ;
#179 = COORDINATED_UNIVERSAL_TIME_OFFSET ( 1, 0, .AHEAD. ) ;
#180 = EDGE_LOOP ( 'NONE', ( #44, #65, #143, #155 ) ) ;
#181 = DIRECTION ( 'NONE',  ( -0.000000000000000000, -0.000000000000000000, -1.000000000000000000 ) ) ;
#182 = ORIENTED_EDGE ( 'NONE', *, *, #152, .T. ) ;
#183 = EDGE_LOOP ( 'NONE', ( #93, #169, #29, #217 ) ) ;
#184 = AXIS2_PLACEMENT_3D ( 'NONE', #137, #23, #253 ) ;
#185 = APPROVAL ( #243, 'NEURÈENÝ' ) ;
#186 = ORIENTED_EDGE ( 'NONE', *, *, #82, .F. ) ;
#187 = AXIS2_PLACEMENT_3D ( 'NONE', #94, #146, #241 ) ;
#188 = CARTESIAN_POINT ( 'NONE',  ( 0.000000000000000000, 0.000000000000000000, 100.0000000000000000 ) ) ;
#189 = DIRECTION ( 'NONE',  ( -0.000000000000000000, -0.000000000000000000, -1.000000000000000000 ) ) ;
#190 = EDGE_CURVE ( 'NONE', #178, #230, #21, .T. ) ;
#191 = CARTESIAN_POINT ( 'NONE',  ( -1.250000000000000000, 0.000000000000000000, 1.199999999999999956 ) ) ;
#192 = APPLICATION_PROTOCOL_DEFINITION ( 'international standard', 'config_control_design', 1994, #5 ) ;
#193 = ORIENTED_EDGE ( 'NONE', *, *, #96, .F. ) ;
#194 = APPROVAL_PERSON_ORGANIZATION ( #151, #139, #228 ) ;
#195 = PERSON_AND_ORGANIZATION ( #238, #28 ) ;
#196 = ADVANCED_FACE ( 'NONE', ( #63, #39 ), #120, .T. ) ;
#197 = CALENDAR_DATE ( 2023, 31, 1 ) ;
#198 = CYLINDRICAL_SURFACE ( 'NONE', #134, 1.250000000000000000 ) ;
#199 = ORIENTED_EDGE ( 'NONE', *, *, #60, .F. ) ;
#200 = CIRCLE ( 'NONE', #100, 0.5000000000000000000 ) ;
#201 = LOCAL_TIME ( 15, 32, 20.00000000000000000, #179 ) ;
#202 = SHAPE_DEFINITION_REPRESENTATION ( #172, #14 ) ;
#203 = ADVANCED_FACE ( 'NONE', ( #158 ), #138, .T. ) ;
#204 = DIRECTION ( 'NONE',  ( -0.000000000000000000, -0.000000000000000000, -1.000000000000000000 ) ) ;
#205 = DIRECTION ( 'NONE',  ( 1.000000000000000000, 0.000000000000000000, 0.000000000000000000 ) ) ;
#206 = CARTESIAN_POINT ( 'NONE',  ( -1.250000000000000000, 0.000000000000000000, 1.199999999999999956 ) ) ;
#207 = DIRECTION ( 'NONE',  ( 0.000000000000000000, 0.000000000000000000, 1.000000000000000000 ) ) ;
#208 = AXIS2_PLACEMENT_3D ( 'NONE', #211, #18, #24 ) ;
#209 = DIRECTION ( 'NONE',  ( -0.000000000000000000, -0.000000000000000000, -1.000000000000000000 ) ) ;
#210 = FACE_OUTER_BOUND ( 'NONE', #180, .T. ) ;
#211 = CARTESIAN_POINT ( 'NONE',  ( 0.000000000000000000, 0.000000000000000000, 0.000000000000000000 ) ) ;
#212 = APPROVAL ( #142, 'NEURÈENÝ' ) ;
#213 = APPROVAL_ROLE ( '' ) ;
#214 = PERSON_AND_ORGANIZATION ( #238, #28 ) ;
#215 = ORIENTED_EDGE ( 'NONE', *, *, #82, .T. ) ;
#216 = SECURITY_CLASSIFICATION ( '', '', #226 ) ;
#217 = ORIENTED_EDGE ( 'NONE', *, *, #13, .T. ) ;
#218 = LOCAL_TIME ( 15, 32, 20.00000000000000000, #148 ) ;
#219 = MECHANICAL_CONTEXT ( 'NONE', #11, 'mechanical' ) ;
#220 = DATE_AND_TIME ( #161, #2 ) ;
#221 = EDGE_LOOP ( 'NONE', ( #193, #126, #73, #50 ) ) ;
#222 = EDGE_LOOP ( 'NONE', ( #182, #26 ) ) ;
#223 = CLOSED_SHELL ( 'NONE', ( #113, #17, #235, #196, #85, #122, #203 ) ) ;
#224 = PRODUCT_DEFINITION_FORMATION_WITH_SPECIFIED_SOURCE ( 'LIBOVOLNÝ', '', #87, .NOT_KNOWN. ) ;
#225 = PRODUCT_RELATED_PRODUCT_CATEGORY ( 'detail', '', ( #87 ) ) ;
#226 = SECURITY_CLASSIFICATION_LEVEL ( 'unclassified' ) ;
#227 = EDGE_LOOP ( 'NONE', ( #9, #186, #98, #47 ) ) ;
#228 = APPROVAL_ROLE ( '' ) ;
#229 = DIRECTION ( 'NONE',  ( -1.000000000000000000, 0.000000000000000000, 0.000000000000000000 ) ) ;
#230 = VERTEX_POINT ( 'NONE', #174 ) ;
#231 = CARTESIAN_POINT ( 'NONE',  ( 0.000000000000000000, 0.000000000000000000, 100.0000000000000000 ) ) ;
#232 = CC_DESIGN_PERSON_AND_ORGANIZATION_ASSIGNMENT ( #214, #125, ( #224 ) ) ;
#233 = CARTESIAN_POINT ( 'NONE',  ( 1.250000000000000000, 1.530808498934191571E-16, 1.199999999999999956 ) ) ;
#234 = DIRECTION ( 'NONE',  ( 0.000000000000000000, 0.000000000000000000, 1.000000000000000000 ) ) ;
#235 = ADVANCED_FACE ( 'NONE', ( #109 ), #198, .T. ) ;
#236 = VECTOR ( 'NONE', #31, 1000.000000000000000 ) ;
#237 = CARTESIAN_POINT ( 'NONE',  ( 1.250000000000000000, 1.530808498934191571E-16, 1.199999999999999956 ) ) ;
#238 = PERSON ( 'NEURÈENÝ', 'NEURÈENÝ', 'NEURÈENÝ', ('NEURÈENÝ'), ('NEURÈENÝ'), ('NEURÈENÝ') ) ;
#239 = CARTESIAN_POINT ( 'NONE',  ( 0.000000000000000000, 0.000000000000000000, 1.199999999999999956 ) ) ;
#240 = ORIENTED_EDGE ( 'NONE', *, *, #190, .T. ) ;
#241 = DIRECTION ( 'NONE',  ( 1.000000000000000000, 0.000000000000000000, -0.000000000000000000 ) ) ;
#242 = DIRECTION ( 'NONE',  ( -1.000000000000000000, 0.000000000000000000, 0.000000000000000000 ) ) ;
#243 = APPROVAL_STATUS ( 'not_yet_approved' ) ;
#244 = ORIENTED_EDGE ( 'NONE', *, *, #130, .F. ) ;
#245 = DATE_TIME_ROLE ( 'classification_date' ) ;
#246 = PRODUCT_DEFINITION ( 'NEZNÁMÝ', '', #224, #56 ) ;
#247 = DIRECTION ( 'NONE',  ( 1.000000000000000000, 0.000000000000000000, 0.000000000000000000 ) ) ;
#248 = DATE_AND_TIME ( #76, #218 ) ;
#249 = FACE_OUTER_BOUND ( 'NONE', #221, .T. ) ;
#250 = AXIS2_PLACEMENT_3D ( 'NONE', #166, #204, #229 ) ;
#251 = CARTESIAN_POINT ( 'NONE',  ( 0.000000000000000000, 0.000000000000000000, 1.199999999999999956 ) ) ;
#252 = EDGE_CURVE ( 'NONE', #149, #133, #104, .T. ) ;
#253 = DIRECTION ( 'NONE',  ( 1.000000000000000000, 0.000000000000000000, 0.000000000000000000 ) ) ;
#254 = DIRECTION ( 'NONE',  ( 1.000000000000000000, 0.000000000000000000, -0.000000000000000000 ) ) ;
#255 = CARTESIAN_POINT ( 'NONE',  ( -1.250000000000000000, 0.000000000000000000, 0.000000000000000000 ) ) ;
ENDSEC;
END-ISO-10303-21;
