ISO-10303-21;
HEADER;
FILE_DESCRIPTION (( 'STEP AP203' ),
    '1' );
FILE_NAME ('6f5a.STEP',
    '2023-02-13T15:04:50',
    ( '' ),
    ( '' ),
    'SwSTEP 2.0',
    'SolidWorks 2019',
    '' );
FILE_SCHEMA (( 'CONFIG_CONTROL_DESIGN' ));
ENDSEC;

DATA;
#1 = DIRECTION ( 'NONE',  ( -0.000000000000000000, -0.000000000000000000, -1.000000000000000000 ) ) ;
#2 = APPLICATION_CONTEXT ( 'configuration controlled 3d designs of mechanical parts and assemblies' ) ;
#3 = CYLINDRICAL_SURFACE ( 'NONE', #147, 2.250000000000000000 ) ;
#4 = ADVANCED_FACE ( 'NONE', ( #56 ), #181, .T. ) ;
#5 = DATE_AND_TIME ( #180, #94 ) ;
#6 = AXIS2_PLACEMENT_3D ( 'NONE', #79, #234, #38 ) ;
#7 = CARTESIAN_POINT ( 'NONE',  ( 0.000000000000000000, 0.000000000000000000, 125.0000000000000000 ) ) ;
#8 = DIRECTION ( 'NONE',  ( 1.000000000000000000, 0.000000000000000000, 0.000000000000000000 ) ) ;
#9 = CLOSED_SHELL ( 'NONE', ( #201, #4, #48, #66, #142, #36, #21 ) ) ;
#10 = LINE ( 'NONE', #170, #39 ) ;
#11 = DIRECTION ( 'NONE',  ( -0.000000000000000000, -0.000000000000000000, -1.000000000000000000 ) ) ;
#12 = CARTESIAN_POINT ( 'NONE',  ( 2.250000000000000000, 2.755455298081543792E-16, 3.000000000000000000 ) ) ;
#13 = ORIENTED_EDGE ( 'NONE', *, *, #89, .F. ) ;
#14 = AXIS2_PLACEMENT_3D ( 'NONE', #187, #150, #185 ) ;
#15 = APPROVAL_ROLE ( '' ) ;
#16 = EDGE_CURVE ( 'NONE', #208, #175, #186, .T. ) ;
#17 = VERTEX_POINT ( 'NONE', #12 ) ;
#18 = PERSON_AND_ORGANIZATION_ROLE ( 'creator' ) ;
#19 = MANIFOLD_SOLID_BREP ( 'Pøidat vysunutím3', #9 ) ;
#20 = APPROVAL_STATUS ( 'not_yet_approved' ) ;
#21 = ADVANCED_FACE ( 'NONE', ( #249 ), #91, .T. ) ;
#22 = AXIS2_PLACEMENT_3D ( 'NONE', #162, #182, #55 ) ;
#23 = DESIGN_CONTEXT ( 'detailed design', #2, 'design' ) ;
#24 = ORIENTED_EDGE ( 'NONE', *, *, #89, .T. ) ;
#25 = CARTESIAN_POINT ( 'NONE',  ( 0.000000000000000000, 0.000000000000000000, 3.000000000000000000 ) ) ;
#26 = APPROVAL_PERSON_ORGANIZATION ( #60, #246, #58 ) ;
#27 = FACE_OUTER_BOUND ( 'NONE', #195, .T. ) ;
#28 = EDGE_CURVE ( 'NONE', #208, #212, #100, .T. ) ;
#29 = PLANE ( 'NONE',  #22 ) ;
#30 = SECURITY_CLASSIFICATION ( '', '', #57 ) ;
#31 = CC_DESIGN_PERSON_AND_ORGANIZATION_ASSIGNMENT ( #179, #98, ( #242 ) ) ;
#32 = CARTESIAN_POINT ( 'NONE',  ( 4.000000000000000000, 4.898587196589412829E-16, 0.000000000000000000 ) ) ;
#33 = ORIENTED_EDGE ( 'NONE', *, *, #28, .T. ) ;
#34 = CARTESIAN_POINT ( 'NONE',  ( 0.000000000000000000, 0.000000000000000000, 125.0000000000000000 ) ) ;
#35 = CARTESIAN_POINT ( 'NONE',  ( 4.000000000000000000, 4.898587196589412829E-16, 3.000000000000000000 ) ) ;
#36 = ADVANCED_FACE ( 'NONE', ( #27 ), #3, .T. ) ;
#37 = ORIENTED_EDGE ( 'NONE', *, *, #59, .T. ) ;
#38 = DIRECTION ( 'NONE',  ( 1.000000000000000000, 0.000000000000000000, 0.000000000000000000 ) ) ;
#39 = VECTOR ( 'NONE', #241, 1000.000000000000000 ) ;
#40 = ORIENTED_EDGE ( 'NONE', *, *, #110, .T. ) ;
#41 = SHAPE_DEFINITION_REPRESENTATION ( #219, #81 ) ;
#42 = DIRECTION ( 'NONE',  ( -0.000000000000000000, -0.000000000000000000, -1.000000000000000000 ) ) ;
#43 = EDGE_CURVE ( 'NONE', #50, #73, #53, .T. ) ;
#44 = APPROVAL_ROLE ( '' ) ;
#45 = DIRECTION ( 'NONE',  ( 0.000000000000000000, 0.000000000000000000, 1.000000000000000000 ) ) ;
#46 =( LENGTH_UNIT ( ) NAMED_UNIT ( * ) SI_UNIT ( .MILLI., .METRE. ) );
#47 = ORIENTED_EDGE ( 'NONE', *, *, #28, .F. ) ;
#48 = ADVANCED_FACE ( 'NONE', ( #196 ), #105, .T. ) ;
#49 = CARTESIAN_POINT ( 'NONE',  ( 0.000000000000000000, 0.000000000000000000, 3.000000000000000000 ) ) ;
#50 = VERTEX_POINT ( 'NONE', #108 ) ;
#51 = DIRECTION ( 'NONE',  ( 0.000000000000000000, 0.000000000000000000, 1.000000000000000000 ) ) ;
#52 = CC_DESIGN_DATE_AND_TIME_ASSIGNMENT ( #99, #176, ( #129 ) ) ;
#53 = CIRCLE ( 'NONE', #199, 2.250000000000000000 ) ;
#54 = ORIENTED_EDGE ( 'NONE', *, *, #113, .F. ) ;
#55 = DIRECTION ( 'NONE',  ( 1.000000000000000000, 0.000000000000000000, -0.000000000000000000 ) ) ;
#56 = FACE_OUTER_BOUND ( 'NONE', #204, .T. ) ;
#57 = SECURITY_CLASSIFICATION_LEVEL ( 'unclassified' ) ;
#58 = APPROVAL_ROLE ( '' ) ;
#59 = EDGE_CURVE ( 'NONE', #189, #175, #239, .T. ) ;
#60 = PERSON_AND_ORGANIZATION ( #107, #132 ) ;
#61 = EDGE_LOOP ( 'NONE', ( #151, #33 ) ) ;
#62 = LOCAL_TIME ( 16, 4, 50.00000000000000000, #75 ) ;
#63 = CIRCLE ( 'NONE', #143, 4.000000000000000000 ) ;
#64 =( GEOMETRIC_REPRESENTATION_CONTEXT ( 3 ) GLOBAL_UNCERTAINTY_ASSIGNED_CONTEXT ( ( #254 ) ) GLOBAL_UNIT_ASSIGNED_CONTEXT ( ( #46, #220, #67 ) ) REPRESENTATION_CONTEXT ( 'NONE', 'WORKASPACE' ) );
#65 = AXIS2_PLACEMENT_3D ( 'NONE', #25, #240, #214 ) ;
#66 = ADVANCED_FACE ( 'NONE', ( #104, #83 ), #29, .T. ) ;
#67 =( NAMED_UNIT ( * ) SI_UNIT ( $, .STERADIAN. ) SOLID_ANGLE_UNIT ( ) );
#68 = CARTESIAN_POINT ( 'NONE',  ( 4.000000000000000000, 4.898587196589412829E-16, 3.000000000000000000 ) ) ;
#69 = ORIENTED_EDGE ( 'NONE', *, *, #250, .T. ) ;
#70 = CARTESIAN_POINT ( 'NONE',  ( 0.000000000000000000, 0.000000000000000000, 0.000000000000000000 ) ) ;
#71 = EDGE_CURVE ( 'NONE', #212, #208, #84, .T. ) ;
#72 = AXIS2_PLACEMENT_3D ( 'NONE', #114, #1, #222 ) ;
#73 = VERTEX_POINT ( 'NONE', #112 ) ;
#74 = DIRECTION ( 'NONE',  ( 1.000000000000000000, 0.000000000000000000, 0.000000000000000000 ) ) ;
#75 = COORDINATED_UNIVERSAL_TIME_OFFSET ( 1, 0, .AHEAD. ) ;
#76 = EDGE_LOOP ( 'NONE', ( #13, #54 ) ) ;
#77 = DATE_AND_TIME ( #123, #62 ) ;
#78 = APPROVAL ( #188, 'NEURÈENÝ' ) ;
#79 = CARTESIAN_POINT ( 'NONE',  ( 0.000000000000000000, 0.000000000000000000, 0.000000000000000000 ) ) ;
#80 = COORDINATED_UNIVERSAL_TIME_OFFSET ( 1, 0, .AHEAD. ) ;
#81 = ADVANCED_BREP_SHAPE_REPRESENTATION ( '6f5a', ( #19, #6 ), #64 ) ;
#82 = AXIS2_PLACEMENT_3D ( 'NONE', #119, #141, #74 ) ;
#83 = FACE_OUTER_BOUND ( 'NONE', #61, .T. ) ;
#84 = CIRCLE ( 'NONE', #124, 4.000000000000000000 ) ;
#85 = DATE_TIME_ROLE ( 'classification_date' ) ;
#86 = CARTESIAN_POINT ( 'NONE',  ( 0.000000000000000000, 0.000000000000000000, 0.000000000000000000 ) ) ;
#87 = CARTESIAN_POINT ( 'NONE',  ( -2.250000000000000000, 0.000000000000000000, 3.000000000000000000 ) ) ;
#88 = DIRECTION ( 'NONE',  ( 1.000000000000000000, 0.000000000000000000, 0.000000000000000000 ) ) ;
#89 = EDGE_CURVE ( 'NONE', #235, #17, #237, .T. ) ;
#90 = DIRECTION ( 'NONE',  ( 1.000000000000000000, 0.000000000000000000, -0.000000000000000000 ) ) ;
#91 = PLANE ( 'NONE',  #211 ) ;
#92 = DIRECTION ( 'NONE',  ( 0.000000000000000000, 0.000000000000000000, 1.000000000000000000 ) ) ;
#93 = DIRECTION ( 'NONE',  ( 1.000000000000000000, 0.000000000000000000, -0.000000000000000000 ) ) ;
#94 = LOCAL_TIME ( 16, 4, 50.00000000000000000, #148 ) ;
#95 = ORIENTED_EDGE ( 'NONE', *, *, #250, .F. ) ;
#96 = APPROVAL_DATE_TIME ( #77, #78 ) ;
#97 = ORIENTED_EDGE ( 'NONE', *, *, #131, .T. ) ;
#98 = PERSON_AND_ORGANIZATION_ROLE ( 'creator' ) ;
#99 = DATE_AND_TIME ( #194, #184 ) ;
#100 = CIRCLE ( 'NONE', #82, 4.000000000000000000 ) ;
#101 = APPROVAL_PERSON_ORGANIZATION ( #163, #226, #44 ) ;
#102 = PRODUCT_RELATED_PRODUCT_CATEGORY ( 'detail', '', ( #109 ) ) ;
#103 = COORDINATED_UNIVERSAL_TIME_OFFSET ( 1, 0, .AHEAD. ) ;
#104 = FACE_BOUND ( 'NONE', #76, .T. ) ;
#105 = CYLINDRICAL_SURFACE ( 'NONE', #65, 4.000000000000000000 ) ;
#106 = DIRECTION ( 'NONE',  ( 0.000000000000000000, 0.000000000000000000, 1.000000000000000000 ) ) ;
#107 = PERSON ( 'NEURÈENÝ', 'NEURÈENÝ', 'NEURÈENÝ', ('NEURÈENÝ'), ('NEURÈENÝ'), ('NEURÈENÝ') ) ;
#108 = CARTESIAN_POINT ( 'NONE',  ( 2.250000000000000000, 2.755455298081543792E-16, 125.0000000000000000 ) ) ;
#109 = PRODUCT ( '6f5a', '6f5a', '', ( #252 ) ) ;
#110 = EDGE_CURVE ( 'NONE', #50, #17, #10, .T. ) ;
#111 = CIRCLE ( 'NONE', #125, 2.250000000000000000 ) ;
#112 = CARTESIAN_POINT ( 'NONE',  ( -2.250000000000000000, 0.000000000000000000, 125.0000000000000000 ) ) ;
#113 = EDGE_CURVE ( 'NONE', #17, #235, #183, .T. ) ;
#114 = CARTESIAN_POINT ( 'NONE',  ( 0.000000000000000000, 0.000000000000000000, 3.000000000000000000 ) ) ;
#115 = LINE ( 'NONE', #149, #138 ) ;
#116 = DIRECTION ( 'NONE',  ( 0.000000000000000000, 0.000000000000000000, 1.000000000000000000 ) ) ;
#117 = CARTESIAN_POINT ( 'NONE',  ( -4.000000000000000000, 0.000000000000000000, 3.000000000000000000 ) ) ;
#118 = APPLICATION_CONTEXT ( 'configuration controlled 3d designs of mechanical parts and assemblies' ) ;
#119 = CARTESIAN_POINT ( 'NONE',  ( 0.000000000000000000, 0.000000000000000000, 3.000000000000000000 ) ) ;
#120 = AXIS2_PLACEMENT_3D ( 'NONE', #221, #166, #8 ) ;
#121 = ORIENTED_EDGE ( 'NONE', *, *, #16, .F. ) ;
#122 = PERSON_AND_ORGANIZATION_ROLE ( 'design_owner' ) ;
#123 = CALENDAR_DATE ( 2023, 13, 2 ) ;
#124 = AXIS2_PLACEMENT_3D ( 'NONE', #49, #223, #88 ) ;
#125 = AXIS2_PLACEMENT_3D ( 'NONE', #168, #51, #225 ) ;
#126 = EDGE_LOOP ( 'NONE', ( #139, #171 ) ) ;
#127 = DIRECTION ( 'NONE',  ( -1.000000000000000000, 0.000000000000000000, 0.000000000000000000 ) ) ;
#128 = CC_DESIGN_SECURITY_CLASSIFICATION ( #30, ( #242 ) ) ;
#129 = PRODUCT_DEFINITION ( 'NEZNÁMÝ', '', #242, #23 ) ;
#130 = CARTESIAN_POINT ( 'NONE',  ( 0.000000000000000000, 0.000000000000000000, 125.0000000000000000 ) ) ;
#131 = EDGE_CURVE ( 'NONE', #212, #189, #115, .T. ) ;
#132 = ORGANIZATION ( 'NEURÈENÝ', 'NEURÈENÝ', '' ) ;
#133 = PLANE ( 'NONE',  #174 ) ;
#134 = CARTESIAN_POINT ( 'NONE',  ( -2.250000000000000000, 0.000000000000000000, 125.0000000000000000 ) ) ;
#135 = FACE_OUTER_BOUND ( 'NONE', #173, .T. ) ;
#136 = EDGE_LOOP ( 'NONE', ( #229, #40, #207, #95 ) ) ;
#137 = AXIS2_PLACEMENT_3D ( 'NONE', #86, #45, #198 ) ;
#138 = VECTOR ( 'NONE', #203, 1000.000000000000000 ) ;
#139 = ORIENTED_EDGE ( 'NONE', *, *, #236, .T. ) ;
#140 = CARTESIAN_POINT ( 'NONE',  ( 0.000000000000000000, 0.000000000000000000, 0.000000000000000000 ) ) ;
#141 = DIRECTION ( 'NONE',  ( 0.000000000000000000, 0.000000000000000000, 1.000000000000000000 ) ) ;
#142 = ADVANCED_FACE ( 'NONE', ( #135 ), #133, .F. ) ;
#143 = AXIS2_PLACEMENT_3D ( 'NONE', #140, #202, #152 ) ;
#144 = APPLICATION_PROTOCOL_DEFINITION ( 'international standard', 'config_control_design', 1994, #118 ) ;
#145 = PERSON_AND_ORGANIZATION ( #107, #132 ) ;
#146 = CC_DESIGN_APPROVAL ( #246, ( #242 ) ) ;
#147 = AXIS2_PLACEMENT_3D ( 'NONE', #164, #42, #127 ) ;
#148 = COORDINATED_UNIVERSAL_TIME_OFFSET ( 1, 0, .AHEAD. ) ;
#149 = CARTESIAN_POINT ( 'NONE',  ( -4.000000000000000000, 0.000000000000000000, 3.000000000000000000 ) ) ;
#150 = DIRECTION ( 'NONE',  ( 0.000000000000000000, 0.000000000000000000, 1.000000000000000000 ) ) ;
#151 = ORIENTED_EDGE ( 'NONE', *, *, #71, .T. ) ;
#152 = DIRECTION ( 'NONE',  ( 1.000000000000000000, 0.000000000000000000, 0.000000000000000000 ) ) ;
#153 = CYLINDRICAL_SURFACE ( 'NONE', #209, 2.250000000000000000 ) ;
#154 = ORIENTED_EDGE ( 'NONE', *, *, #131, .F. ) ;
#155 = PERSON_AND_ORGANIZATION_ROLE ( 'design_supplier' ) ;
#156 = CALENDAR_DATE ( 2023, 13, 2 ) ;
#157 = VECTOR ( 'NONE', #11, 1000.000000000000000 ) ;
#158 = APPROVAL_DATE_TIME ( #177, #246 ) ;
#159 = CALENDAR_DATE ( 2023, 13, 2 ) ;
#160 = CC_DESIGN_PERSON_AND_ORGANIZATION_ASSIGNMENT ( #255, #155, ( #242 ) ) ;
#161 = ORIENTED_EDGE ( 'NONE', *, *, #236, .F. ) ;
#162 = CARTESIAN_POINT ( 'NONE',  ( 0.000000000000000000, 0.000000000000000000, 3.000000000000000000 ) ) ;
#163 = PERSON_AND_ORGANIZATION ( #107, #132 ) ;
#164 = CARTESIAN_POINT ( 'NONE',  ( 0.000000000000000000, 0.000000000000000000, 125.0000000000000000 ) ) ;
#165 = LINE ( 'NONE', #134, #197 ) ;
#166 = DIRECTION ( 'NONE',  ( 0.000000000000000000, 0.000000000000000000, 1.000000000000000000 ) ) ;
#167 = ORIENTED_EDGE ( 'NONE', *, *, #110, .F. ) ;
#168 = CARTESIAN_POINT ( 'NONE',  ( 0.000000000000000000, 0.000000000000000000, 125.0000000000000000 ) ) ;
#169 = CC_DESIGN_PERSON_AND_ORGANIZATION_ASSIGNMENT ( #145, #122, ( #109 ) ) ;
#170 = CARTESIAN_POINT ( 'NONE',  ( 2.250000000000000000, 2.755455298081543792E-16, 125.0000000000000000 ) ) ;
#171 = ORIENTED_EDGE ( 'NONE', *, *, #43, .T. ) ;
#172 = FACE_OUTER_BOUND ( 'NONE', #136, .T. ) ;
#173 = EDGE_LOOP ( 'NONE', ( #192, #245 ) ) ;
#174 = AXIS2_PLACEMENT_3D ( 'NONE', #70, #92, #90 ) ;
#175 = VERTEX_POINT ( 'NONE', #32 ) ;
#176 = DATE_TIME_ROLE ( 'creation_date' ) ;
#177 = DATE_AND_TIME ( #156, #178 ) ;
#178 = LOCAL_TIME ( 16, 4, 50.00000000000000000, #230 ) ;
#179 = PERSON_AND_ORGANIZATION ( #107, #132 ) ;
#180 = CALENDAR_DATE ( 2023, 13, 2 ) ;
#181 = CYLINDRICAL_SURFACE ( 'NONE', #72, 4.000000000000000000 ) ;
#182 = DIRECTION ( 'NONE',  ( 0.000000000000000000, 0.000000000000000000, 1.000000000000000000 ) ) ;
#183 = CIRCLE ( 'NONE', #120, 2.250000000000000000 ) ;
#184 = LOCAL_TIME ( 16, 4, 50.00000000000000000, #103 ) ;
#185 = DIRECTION ( 'NONE',  ( 1.000000000000000000, 0.000000000000000000, 0.000000000000000000 ) ) ;
#186 = LINE ( 'NONE', #35, #157 ) ;
#187 = CARTESIAN_POINT ( 'NONE',  ( 0.000000000000000000, 0.000000000000000000, 3.000000000000000000 ) ) ;
#188 = APPROVAL_STATUS ( 'not_yet_approved' ) ;
#189 = VERTEX_POINT ( 'NONE', #247 ) ;
#190 = CC_DESIGN_DATE_AND_TIME_ASSIGNMENT ( #210, #85, ( #30 ) ) ;
#191 = APPLICATION_PROTOCOL_DEFINITION ( 'international standard', 'config_control_design', 1994, #2 ) ;
#192 = ORIENTED_EDGE ( 'NONE', *, *, #59, .F. ) ;
#193 = PERSON_AND_ORGANIZATION ( #107, #132 ) ;
#194 = CALENDAR_DATE ( 2023, 13, 2 ) ;
#195 = EDGE_LOOP ( 'NONE', ( #167, #161, #69, #24 ) ) ;
#196 = FACE_OUTER_BOUND ( 'NONE', #227, .T. ) ;
#197 = VECTOR ( 'NONE', #217, 1000.000000000000000 ) ;
#198 = DIRECTION ( 'NONE',  ( 1.000000000000000000, 0.000000000000000000, 0.000000000000000000 ) ) ;
#199 = AXIS2_PLACEMENT_3D ( 'NONE', #130, #106, #215 ) ;
#200 = LOCAL_TIME ( 16, 4, 50.00000000000000000, #80 ) ;
#201 = ADVANCED_FACE ( 'NONE', ( #172 ), #153, .T. ) ;
#202 = DIRECTION ( 'NONE',  ( 0.000000000000000000, 0.000000000000000000, 1.000000000000000000 ) ) ;
#203 = DIRECTION ( 'NONE',  ( -0.000000000000000000, -0.000000000000000000, -1.000000000000000000 ) ) ;
#204 = EDGE_LOOP ( 'NONE', ( #47, #224, #206, #154 ) ) ;
#205 = APPROVAL_PERSON_ORGANIZATION ( #228, #78, #15 ) ;
#206 = ORIENTED_EDGE ( 'NONE', *, *, #231, .T. ) ;
#207 = ORIENTED_EDGE ( 'NONE', *, *, #113, .T. ) ;
#208 = VERTEX_POINT ( 'NONE', #68 ) ;
#209 = AXIS2_PLACEMENT_3D ( 'NONE', #7, #243, #244 ) ;
#210 = DATE_AND_TIME ( #159, #200 ) ;
#211 = AXIS2_PLACEMENT_3D ( 'NONE', #34, #116, #93 ) ;
#212 = VERTEX_POINT ( 'NONE', #117 ) ;
#213 = APPROVAL_STATUS ( 'not_yet_approved' ) ;
#214 = DIRECTION ( 'NONE',  ( -1.000000000000000000, 0.000000000000000000, 0.000000000000000000 ) ) ;
#215 = DIRECTION ( 'NONE',  ( 1.000000000000000000, 0.000000000000000000, 0.000000000000000000 ) ) ;
#216 = CC_DESIGN_PERSON_AND_ORGANIZATION_ASSIGNMENT ( #193, #18, ( #129 ) ) ;
#217 = DIRECTION ( 'NONE',  ( -0.000000000000000000, -0.000000000000000000, -1.000000000000000000 ) ) ;
#218 = CC_DESIGN_APPROVAL ( #226, ( #30 ) ) ;
#219 = PRODUCT_DEFINITION_SHAPE ( 'NONE', 'NONE',  #129 ) ;
#220 =( NAMED_UNIT ( * ) PLANE_ANGLE_UNIT ( ) SI_UNIT ( $, .RADIAN. ) );
#221 = CARTESIAN_POINT ( 'NONE',  ( 0.000000000000000000, 0.000000000000000000, 3.000000000000000000 ) ) ;
#222 = DIRECTION ( 'NONE',  ( -1.000000000000000000, 0.000000000000000000, 0.000000000000000000 ) ) ;
#223 = DIRECTION ( 'NONE',  ( 0.000000000000000000, 0.000000000000000000, 1.000000000000000000 ) ) ;
#224 = ORIENTED_EDGE ( 'NONE', *, *, #16, .T. ) ;
#225 = DIRECTION ( 'NONE',  ( 1.000000000000000000, 0.000000000000000000, 0.000000000000000000 ) ) ;
#226 = APPROVAL ( #213, 'NEURÈENÝ' ) ;
#227 = EDGE_LOOP ( 'NONE', ( #121, #251, #97, #37 ) ) ;
#228 = PERSON_AND_ORGANIZATION ( #107, #132 ) ;
#229 = ORIENTED_EDGE ( 'NONE', *, *, #43, .F. ) ;
#230 = COORDINATED_UNIVERSAL_TIME_OFFSET ( 1, 0, .AHEAD. ) ;
#231 = EDGE_CURVE ( 'NONE', #175, #189, #63, .T. ) ;
#232 = PERSON_AND_ORGANIZATION ( #107, #132 ) ;
#233 = PERSON_AND_ORGANIZATION_ROLE ( 'classification_officer' ) ;
#234 = DIRECTION ( 'NONE',  ( 0.000000000000000000, 0.000000000000000000, 1.000000000000000000 ) ) ;
#235 = VERTEX_POINT ( 'NONE', #87 ) ;
#236 = EDGE_CURVE ( 'NONE', #73, #50, #111, .T. ) ;
#237 = CIRCLE ( 'NONE', #14, 2.250000000000000000 ) ;
#238 = APPROVAL_DATE_TIME ( #5, #226 ) ;
#239 = CIRCLE ( 'NONE', #137, 4.000000000000000000 ) ;
#240 = DIRECTION ( 'NONE',  ( -0.000000000000000000, -0.000000000000000000, -1.000000000000000000 ) ) ;
#241 = DIRECTION ( 'NONE',  ( -0.000000000000000000, -0.000000000000000000, -1.000000000000000000 ) ) ;
#242 = PRODUCT_DEFINITION_FORMATION_WITH_SPECIFIED_SOURCE ( 'LIBOVOLNÝ', '', #109, .NOT_KNOWN. ) ;
#243 = DIRECTION ( 'NONE',  ( -0.000000000000000000, -0.000000000000000000, -1.000000000000000000 ) ) ;
#244 = DIRECTION ( 'NONE',  ( -1.000000000000000000, 0.000000000000000000, 0.000000000000000000 ) ) ;
#245 = ORIENTED_EDGE ( 'NONE', *, *, #231, .F. ) ;
#246 = APPROVAL ( #20, 'NEURÈENÝ' ) ;
#247 = CARTESIAN_POINT ( 'NONE',  ( -4.000000000000000000, 0.000000000000000000, 0.000000000000000000 ) ) ;
#248 = CC_DESIGN_APPROVAL ( #78, ( #129 ) ) ;
#249 = FACE_OUTER_BOUND ( 'NONE', #126, .T. ) ;
#250 = EDGE_CURVE ( 'NONE', #73, #235, #165, .T. ) ;
#251 = ORIENTED_EDGE ( 'NONE', *, *, #71, .F. ) ;
#252 = MECHANICAL_CONTEXT ( 'NONE', #118, 'mechanical' ) ;
#253 = CC_DESIGN_PERSON_AND_ORGANIZATION_ASSIGNMENT ( #232, #233, ( #30 ) ) ;
#254 = UNCERTAINTY_MEASURE_WITH_UNIT (LENGTH_MEASURE( 1.000000000000000082E-05 ), #46, 'distance_accuracy_value', 'NONE');
#255 = PERSON_AND_ORGANIZATION ( #107, #132 ) ;
ENDSEC;
END-ISO-10303-21;
