ISO-10303-21;
HEADER;
FILE_DESCRIPTION (( 'STEP AP203' ),
    '1' );
FILE_NAME ('5f50.STEP',
    '2023-02-13T09:20:46',
    ( '' ),
    ( '' ),
    'SwSTEP 2.0',
    'SolidWorks 2019',
    '' );
FILE_SCHEMA (( 'CONFIG_CONTROL_DESIGN' ));
ENDSEC;

DATA;
#1 = EDGE_CURVE ( 'NONE', #26, #211, #248, .T. ) ;
#2 = LOCAL_TIME ( 10, 20, 46.00000000000000000, #154 ) ;
#3 = LINE ( 'NONE', #221, #209 ) ;
#4 = DIRECTION ( 'NONE',  ( -0.000000000000000000, -0.000000000000000000, -1.000000000000000000 ) ) ;
#5 = APPROVAL ( #193, 'NEURÈENÝ' ) ;
#6 = DIRECTION ( 'NONE',  ( 0.000000000000000000, 0.000000000000000000, 1.000000000000000000 ) ) ;
#7 = APPROVAL_DATE_TIME ( #200, #5 ) ;
#8 = DIRECTION ( 'NONE',  ( 0.000000000000000000, 0.000000000000000000, 1.000000000000000000 ) ) ;
#9 = EDGE_CURVE ( 'NONE', #183, #74, #3, .T. ) ;
#10 = CC_DESIGN_APPROVAL ( #226, ( #197 ) ) ;
#11 = DIRECTION ( 'NONE',  ( 0.000000000000000000, 0.000000000000000000, 1.000000000000000000 ) ) ;
#12 = PERSON_AND_ORGANIZATION_ROLE ( 'creator' ) ;
#13 = AXIS2_PLACEMENT_3D ( 'NONE', #46, #189, #208 ) ;
#14 = ADVANCED_FACE ( 'NONE', ( #247 ), #144, .T. ) ;
#15 = ADVANCED_FACE ( 'NONE', ( #39 ), #160, .T. ) ;
#16 = CARTESIAN_POINT ( 'NONE',  ( 0.000000000000000000, 0.000000000000000000, 7.000000000000000000 ) ) ;
#17 = CC_DESIGN_SECURITY_CLASSIFICATION ( #197, ( #214 ) ) ;
#18 = CALENDAR_DATE ( 2023, 13, 2 ) ;
#19 = ORIENTED_EDGE ( 'NONE', *, *, #89, .T. ) ;
#20 = DIRECTION ( 'NONE',  ( -1.000000000000000000, 0.000000000000000000, 0.000000000000000000 ) ) ;
#21 = CARTESIAN_POINT ( 'NONE',  ( -8.000000000000000000, 0.000000000000000000, 400.0000000000000000 ) ) ;
#22 = AXIS2_PLACEMENT_3D ( 'NONE', #199, #181, #95 ) ;
#23 = EDGE_LOOP ( 'NONE', ( #227, #232, #130, #114 ) ) ;
#24 = APPLICATION_CONTEXT ( 'configuration controlled 3d designs of mechanical parts and assemblies' ) ;
#25 = CARTESIAN_POINT ( 'NONE',  ( 0.000000000000000000, 0.000000000000000000, 7.000000000000000000 ) ) ;
#26 = VERTEX_POINT ( 'NONE', #113 ) ;
#27 = CARTESIAN_POINT ( 'NONE',  ( 8.000000000000000000, 9.797174393178825657E-16, 7.000000000000000000 ) ) ;
#28 = AXIS2_PLACEMENT_3D ( 'NONE', #97, #8, #170 ) ;
#29 = DATE_TIME_ROLE ( 'classification_date' ) ;
#30 = LOCAL_TIME ( 10, 20, 46.00000000000000000, #60 ) ;
#31 = APPROVAL_ROLE ( '' ) ;
#32 = APPROVAL_PERSON_ORGANIZATION ( #103, #226, #254 ) ;
#33 = EDGE_CURVE ( 'NONE', #67, #148, #47, .T. ) ;
#34 = APPROVAL_DATE_TIME ( #109, #106 ) ;
#35 = ADVANCED_FACE ( 'NONE', ( #115 ), #180, .T. ) ;
#36 = PRODUCT_DEFINITION_SHAPE ( 'NONE', 'NONE',  #54 ) ;
#37 = EDGE_LOOP ( 'NONE', ( #202, #129 ) ) ;
#38 = DIRECTION ( 'NONE',  ( -0.000000000000000000, -0.000000000000000000, -1.000000000000000000 ) ) ;
#39 = FACE_OUTER_BOUND ( 'NONE', #206, .T. ) ;
#40 = DATE_TIME_ROLE ( 'creation_date' ) ;
#41 = CYLINDRICAL_SURFACE ( 'NONE', #85, 11.00000000000000000 ) ;
#42 = EDGE_LOOP ( 'NONE', ( #138, #19 ) ) ;
#43 = ORGANIZATION ( 'NEURÈENÝ', 'NEURÈENÝ', '' ) ;
#44 = CC_DESIGN_PERSON_AND_ORGANIZATION_ASSIGNMENT ( #88, #213, ( #197 ) ) ;
#45 = EDGE_LOOP ( 'NONE', ( #162, #230, #100, #117 ) ) ;
#46 = CARTESIAN_POINT ( 'NONE',  ( 0.000000000000000000, 0.000000000000000000, 7.000000000000000000 ) ) ;
#47 = CIRCLE ( 'NONE', #79, 8.000000000000000000 ) ;
#48 = VERTEX_POINT ( 'NONE', #77 ) ;
#49 = DIRECTION ( 'NONE',  ( 1.000000000000000000, 0.000000000000000000, 0.000000000000000000 ) ) ;
#50 = PERSON_AND_ORGANIZATION ( #139, #43 ) ;
#51 = DIRECTION ( 'NONE',  ( 0.000000000000000000, 0.000000000000000000, 1.000000000000000000 ) ) ;
#52 = ADVANCED_FACE ( 'NONE', ( #238 ), #94, .T. ) ;
#53 = ORIENTED_EDGE ( 'NONE', *, *, #185, .F. ) ;
#54 = PRODUCT_DEFINITION ( 'NEZNÁMÝ', '', #214, #245 ) ;
#55 = MECHANICAL_CONTEXT ( 'NONE', #24, 'mechanical' ) ;
#56 = AXIS2_PLACEMENT_3D ( 'NONE', #147, #70, #151 ) ;
#57 = DIRECTION ( 'NONE',  ( -0.000000000000000000, -0.000000000000000000, -1.000000000000000000 ) ) ;
#58 = DIRECTION ( 'NONE',  ( -1.000000000000000000, 0.000000000000000000, 0.000000000000000000 ) ) ;
#59 = DIRECTION ( 'NONE',  ( 1.000000000000000000, 0.000000000000000000, 0.000000000000000000 ) ) ;
#60 = COORDINATED_UNIVERSAL_TIME_OFFSET ( 1, 0, .AHEAD. ) ;
#61 = DIRECTION ( 'NONE',  ( 0.000000000000000000, 0.000000000000000000, 1.000000000000000000 ) ) ;
#62 = SHAPE_DEFINITION_REPRESENTATION ( #36, #236 ) ;
#63 = LINE ( 'NONE', #21, #108 ) ;
#64 = ORIENTED_EDGE ( 'NONE', *, *, #185, .T. ) ;
#65 = UNCERTAINTY_MEASURE_WITH_UNIT (LENGTH_MEASURE( 1.000000000000000082E-05 ), #146, 'distance_accuracy_value', 'NONE');
#66 = LOCAL_TIME ( 10, 20, 46.00000000000000000, #132 ) ;
#67 = VERTEX_POINT ( 'NONE', #244 ) ;
#68 = EDGE_CURVE ( 'NONE', #183, #26, #228, .T. ) ;
#69 = AXIS2_PLACEMENT_3D ( 'NONE', #166, #121, #134 ) ;
#70 = DIRECTION ( 'NONE',  ( 0.000000000000000000, 0.000000000000000000, 1.000000000000000000 ) ) ;
#71 = SECURITY_CLASSIFICATION_LEVEL ( 'unclassified' ) ;
#72 = APPROVAL_STATUS ( 'not_yet_approved' ) ;
#73 = APPLICATION_PROTOCOL_DEFINITION ( 'international standard', 'config_control_design', 1994, #24 ) ;
#74 = VERTEX_POINT ( 'NONE', #81 ) ;
#75 =( NAMED_UNIT ( * ) SI_UNIT ( $, .STERADIAN. ) SOLID_ANGLE_UNIT ( ) );
#76 = AXIS2_PLACEMENT_3D ( 'NONE', #105, #215, #192 ) ;
#77 = CARTESIAN_POINT ( 'NONE',  ( 8.000000000000000000, 9.797174393178825657E-16, 400.0000000000000000 ) ) ;
#78 = CC_DESIGN_PERSON_AND_ORGANIZATION_ASSIGNMENT ( #158, #241, ( #54 ) ) ;
#79 = AXIS2_PLACEMENT_3D ( 'NONE', #240, #136, #223 ) ;
#80 = APPLICATION_CONTEXT ( 'configuration controlled 3d designs of mechanical parts and assemblies' ) ;
#81 = CARTESIAN_POINT ( 'NONE',  ( -11.00000000000000000, 0.000000000000000000, 0.000000000000000000 ) ) ;
#82 = CC_DESIGN_PERSON_AND_ORGANIZATION_ASSIGNMENT ( #173, #251, ( #214 ) ) ;
#83 = CARTESIAN_POINT ( 'NONE',  ( 11.00000000000000000, 1.347111479062088405E-15, 0.000000000000000000 ) ) ;
#84 = DIRECTION ( 'NONE',  ( 1.000000000000000000, 0.000000000000000000, -0.000000000000000000 ) ) ;
#85 = AXIS2_PLACEMENT_3D ( 'NONE', #239, #38, #161 ) ;
#86 = EDGE_CURVE ( 'NONE', #250, #67, #63, .T. ) ;
#87 = ORIENTED_EDGE ( 'NONE', *, *, #86, .F. ) ;
#88 = PERSON_AND_ORGANIZATION ( #139, #43 ) ;
#89 = EDGE_CURVE ( 'NONE', #26, #183, #141, .T. ) ;
#90 = APPLICATION_PROTOCOL_DEFINITION ( 'international standard', 'config_control_design', 1994, #80 ) ;
#91 = VECTOR ( 'NONE', #99, 1000.000000000000000 ) ;
#92 = DIRECTION ( 'NONE',  ( -0.000000000000000000, -0.000000000000000000, -1.000000000000000000 ) ) ;
#93 = APPROVAL_PERSON_ORGANIZATION ( #107, #5, #177 ) ;
#94 = PLANE ( 'NONE',  #22 ) ;
#95 = DIRECTION ( 'NONE',  ( 1.000000000000000000, 0.000000000000000000, -0.000000000000000000 ) ) ;
#96 =( GEOMETRIC_REPRESENTATION_CONTEXT ( 3 ) GLOBAL_UNCERTAINTY_ASSIGNED_CONTEXT ( ( #65 ) ) GLOBAL_UNIT_ASSIGNED_CONTEXT ( ( #146, #124, #75 ) ) REPRESENTATION_CONTEXT ( 'NONE', 'WORKASPACE' ) );
#97 = CARTESIAN_POINT ( 'NONE',  ( 0.000000000000000000, 0.000000000000000000, 7.000000000000000000 ) ) ;
#98 = PLANE ( 'NONE',  #125 ) ;
#99 = DIRECTION ( 'NONE',  ( -0.000000000000000000, -0.000000000000000000, -1.000000000000000000 ) ) ;
#100 = ORIENTED_EDGE ( 'NONE', *, *, #86, .T. ) ;
#101 = AXIS2_PLACEMENT_3D ( 'NONE', #182, #6, #59 ) ;
#102 = CC_DESIGN_APPROVAL ( #106, ( #214 ) ) ;
#103 = PERSON_AND_ORGANIZATION ( #139, #43 ) ;
#104 = PERSON_AND_ORGANIZATION ( #139, #43 ) ;
#105 = CARTESIAN_POINT ( 'NONE',  ( 0.000000000000000000, 0.000000000000000000, 0.000000000000000000 ) ) ;
#106 = APPROVAL ( #111, 'NEURÈENÝ' ) ;
#107 = PERSON_AND_ORGANIZATION ( #139, #43 ) ;
#108 = VECTOR ( 'NONE', #169, 1000.000000000000000 ) ;
#109 = DATE_AND_TIME ( #255, #179 ) ;
#110 = CIRCLE ( 'NONE', #168, 11.00000000000000000 ) ;
#111 = APPROVAL_STATUS ( 'not_yet_approved' ) ;
#112 = CC_DESIGN_PERSON_AND_ORGANIZATION_ASSIGNMENT ( #216, #155, ( #219 ) ) ;
#113 = CARTESIAN_POINT ( 'NONE',  ( 11.00000000000000000, 1.347111479062088405E-15, 7.000000000000000000 ) ) ;
#114 = ORIENTED_EDGE ( 'NONE', *, *, #9, .F. ) ;
#115 = FACE_OUTER_BOUND ( 'NONE', #150, .T. ) ;
#116 = DIRECTION ( 'NONE',  ( -0.000000000000000000, -0.000000000000000000, -1.000000000000000000 ) ) ;
#117 = ORIENTED_EDGE ( 'NONE', *, *, #33, .T. ) ;
#118 = CIRCLE ( 'NONE', #13, 8.000000000000000000 ) ;
#119 = DIRECTION ( 'NONE',  ( 1.000000000000000000, 0.000000000000000000, 0.000000000000000000 ) ) ;
#120 = ORIENTED_EDGE ( 'NONE', *, *, #1, .F. ) ;
#121 = DIRECTION ( 'NONE',  ( -0.000000000000000000, -0.000000000000000000, -1.000000000000000000 ) ) ;
#122 = FACE_OUTER_BOUND ( 'NONE', #186, .T. ) ;
#123 = DIRECTION ( 'NONE',  ( 1.000000000000000000, 0.000000000000000000, -0.000000000000000000 ) ) ;
#124 =( NAMED_UNIT ( * ) PLANE_ANGLE_UNIT ( ) SI_UNIT ( $, .RADIAN. ) );
#125 = AXIS2_PLACEMENT_3D ( 'NONE', #25, #190, #84 ) ;
#126 = ORIENTED_EDGE ( 'NONE', *, *, #68, .F. ) ;
#127 = CARTESIAN_POINT ( 'NONE',  ( 8.000000000000000000, 9.797174393178825657E-16, 400.0000000000000000 ) ) ;
#128 = CALENDAR_DATE ( 2023, 13, 2 ) ;
#129 = ORIENTED_EDGE ( 'NONE', *, *, #175, .T. ) ;
#130 = ORIENTED_EDGE ( 'NONE', *, *, #207, .T. ) ;
#131 = COORDINATED_UNIVERSAL_TIME_OFFSET ( 1, 0, .AHEAD. ) ;
#132 = COORDINATED_UNIVERSAL_TIME_OFFSET ( 1, 0, .AHEAD. ) ;
#133 = ADVANCED_FACE ( 'NONE', ( #122 ), #143, .F. ) ;
#134 = DIRECTION ( 'NONE',  ( -1.000000000000000000, 0.000000000000000000, 0.000000000000000000 ) ) ;
#135 = VECTOR ( 'NONE', #57, 1000.000000000000000 ) ;
#136 = DIRECTION ( 'NONE',  ( 0.000000000000000000, 0.000000000000000000, 1.000000000000000000 ) ) ;
#137 = CC_DESIGN_DATE_AND_TIME_ASSIGNMENT ( #224, #40, ( #54 ) ) ;
#138 = ORIENTED_EDGE ( 'NONE', *, *, #68, .T. ) ;
#139 = PERSON ( 'NEURÈENÝ', 'NEURÈENÝ', 'NEURÈENÝ', ('NEURÈENÝ'), ('NEURÈENÝ'), ('NEURÈENÝ') ) ;
#140 = FACE_BOUND ( 'NONE', #205, .T. ) ;
#141 = CIRCLE ( 'NONE', #28, 11.00000000000000000 ) ;
#142 = ORIENTED_EDGE ( 'NONE', *, *, #249, .T. ) ;
#143 = PLANE ( 'NONE',  #212 ) ;
#144 = CYLINDRICAL_SURFACE ( 'NONE', #69, 8.000000000000000000 ) ;
#145 = DIRECTION ( 'NONE',  ( 0.000000000000000000, 0.000000000000000000, 1.000000000000000000 ) ) ;
#146 =( LENGTH_UNIT ( ) NAMED_UNIT ( * ) SI_UNIT ( .MILLI., .METRE. ) );
#147 = CARTESIAN_POINT ( 'NONE',  ( 0.000000000000000000, 0.000000000000000000, 400.0000000000000000 ) ) ;
#148 = VERTEX_POINT ( 'NONE', #27 ) ;
#149 = CIRCLE ( 'NONE', #246, 8.000000000000000000 ) ;
#150 = EDGE_LOOP ( 'NONE', ( #191, #231, #142, #87 ) ) ;
#151 = DIRECTION ( 'NONE',  ( 1.000000000000000000, 0.000000000000000000, 0.000000000000000000 ) ) ;
#152 = CARTESIAN_POINT ( 'NONE',  ( 11.00000000000000000, 1.347111479062088405E-15, 7.000000000000000000 ) ) ;
#153 = COORDINATED_UNIVERSAL_TIME_OFFSET ( 1, 0, .AHEAD. ) ;
#154 = COORDINATED_UNIVERSAL_TIME_OFFSET ( 1, 0, .AHEAD. ) ;
#155 = PERSON_AND_ORGANIZATION_ROLE ( 'design_owner' ) ;
#156 = CLOSED_SHELL ( 'NONE', ( #35, #201, #15, #222, #133, #14, #52 ) ) ;
#157 = PRODUCT_RELATED_PRODUCT_CATEGORY ( 'detail', '', ( #219 ) ) ;
#158 = PERSON_AND_ORGANIZATION ( #139, #43 ) ;
#159 = EDGE_CURVE ( 'NONE', #48, #148, #210, .T. ) ;
#160 = CYLINDRICAL_SURFACE ( 'NONE', #217, 11.00000000000000000 ) ;
#161 = DIRECTION ( 'NONE',  ( -1.000000000000000000, 0.000000000000000000, 0.000000000000000000 ) ) ;
#162 = ORIENTED_EDGE ( 'NONE', *, *, #159, .F. ) ;
#163 = CARTESIAN_POINT ( 'NONE',  ( 0.000000000000000000, 0.000000000000000000, 400.0000000000000000 ) ) ;
#164 = ORIENTED_EDGE ( 'NONE', *, *, #33, .F. ) ;
#165 = CC_DESIGN_DATE_AND_TIME_ASSIGNMENT ( #174, #29, ( #197 ) ) ;
#166 = CARTESIAN_POINT ( 'NONE',  ( 0.000000000000000000, 0.000000000000000000, 400.0000000000000000 ) ) ;
#167 = CARTESIAN_POINT ( 'NONE',  ( 0.000000000000000000, 0.000000000000000000, 0.000000000000000000 ) ) ;
#168 = AXIS2_PLACEMENT_3D ( 'NONE', #242, #61, #225 ) ;
#169 = DIRECTION ( 'NONE',  ( -0.000000000000000000, -0.000000000000000000, -1.000000000000000000 ) ) ;
#170 = DIRECTION ( 'NONE',  ( 1.000000000000000000, 0.000000000000000000, 0.000000000000000000 ) ) ;
#171 = CIRCLE ( 'NONE', #56, 8.000000000000000000 ) ;
#172 = CC_DESIGN_APPROVAL ( #5, ( #54 ) ) ;
#173 = PERSON_AND_ORGANIZATION ( #139, #43 ) ;
#174 = DATE_AND_TIME ( #128, #218 ) ;
#175 = EDGE_CURVE ( 'NONE', #48, #250, #149, .T. ) ;
#176 = EDGE_CURVE ( 'NONE', #250, #48, #171, .T. ) ;
#177 = APPROVAL_ROLE ( '' ) ;
#178 = MANIFOLD_SOLID_BREP ( 'Pøidat vysunutím3', #156 ) ;
#179 = LOCAL_TIME ( 10, 20, 46.00000000000000000, #131 ) ;
#180 = CYLINDRICAL_SURFACE ( 'NONE', #234, 8.000000000000000000 ) ;
#181 = DIRECTION ( 'NONE',  ( 0.000000000000000000, 0.000000000000000000, 1.000000000000000000 ) ) ;
#182 = CARTESIAN_POINT ( 'NONE',  ( 0.000000000000000000, 0.000000000000000000, 7.000000000000000000 ) ) ;
#183 = VERTEX_POINT ( 'NONE', #253 ) ;
#184 = ORIENTED_EDGE ( 'NONE', *, *, #207, .F. ) ;
#185 = EDGE_CURVE ( 'NONE', #74, #211, #203, .T. ) ;
#186 = EDGE_LOOP ( 'NONE', ( #53, #184 ) ) ;
#187 = CARTESIAN_POINT ( 'NONE',  ( -8.000000000000000000, 0.000000000000000000, 400.0000000000000000 ) ) ;
#188 = CARTESIAN_POINT ( 'NONE',  ( 0.000000000000000000, 0.000000000000000000, 400.0000000000000000 ) ) ;
#189 = DIRECTION ( 'NONE',  ( 0.000000000000000000, 0.000000000000000000, 1.000000000000000000 ) ) ;
#190 = DIRECTION ( 'NONE',  ( 0.000000000000000000, 0.000000000000000000, 1.000000000000000000 ) ) ;
#191 = ORIENTED_EDGE ( 'NONE', *, *, #175, .F. ) ;
#192 = DIRECTION ( 'NONE',  ( 1.000000000000000000, 0.000000000000000000, 0.000000000000000000 ) ) ;
#193 = APPROVAL_STATUS ( 'not_yet_approved' ) ;
#194 = ORIENTED_EDGE ( 'NONE', *, *, #249, .F. ) ;
#195 = CC_DESIGN_PERSON_AND_ORGANIZATION_ASSIGNMENT ( #50, #12, ( #214 ) ) ;
#196 = FACE_OUTER_BOUND ( 'NONE', #23, .T. ) ;
#197 = SECURITY_CLASSIFICATION ( '', '', #71 ) ;
#198 = DATE_AND_TIME ( #235, #2 ) ;
#199 = CARTESIAN_POINT ( 'NONE',  ( 0.000000000000000000, 0.000000000000000000, 400.0000000000000000 ) ) ;
#200 = DATE_AND_TIME ( #220, #66 ) ;
#201 = ADVANCED_FACE ( 'NONE', ( #196 ), #41, .T. ) ;
#202 = ORIENTED_EDGE ( 'NONE', *, *, #176, .T. ) ;
#203 = CIRCLE ( 'NONE', #237, 11.00000000000000000 ) ;
#204 = FACE_OUTER_BOUND ( 'NONE', #42, .T. ) ;
#205 = EDGE_LOOP ( 'NONE', ( #164, #194 ) ) ;
#206 = EDGE_LOOP ( 'NONE', ( #120, #126, #252, #64 ) ) ;
#207 = EDGE_CURVE ( 'NONE', #211, #74, #110, .T. ) ;
#208 = DIRECTION ( 'NONE',  ( 1.000000000000000000, 0.000000000000000000, 0.000000000000000000 ) ) ;
#209 = VECTOR ( 'NONE', #116, 1000.000000000000000 ) ;
#210 = LINE ( 'NONE', #127, #91 ) ;
#211 = VERTEX_POINT ( 'NONE', #83 ) ;
#212 = AXIS2_PLACEMENT_3D ( 'NONE', #167, #145, #123 ) ;
#213 = PERSON_AND_ORGANIZATION_ROLE ( 'classification_officer' ) ;
#214 = PRODUCT_DEFINITION_FORMATION_WITH_SPECIFIED_SOURCE ( 'LIBOVOLNÝ', '', #219, .NOT_KNOWN. ) ;
#215 = DIRECTION ( 'NONE',  ( 0.000000000000000000, 0.000000000000000000, 1.000000000000000000 ) ) ;
#216 = PERSON_AND_ORGANIZATION ( #139, #43 ) ;
#217 = AXIS2_PLACEMENT_3D ( 'NONE', #16, #92, #58 ) ;
#218 = LOCAL_TIME ( 10, 20, 46.00000000000000000, #153 ) ;
#219 = PRODUCT ( '5f50', '5f50', '', ( #55 ) ) ;
#220 = CALENDAR_DATE ( 2023, 13, 2 ) ;
#221 = CARTESIAN_POINT ( 'NONE',  ( -11.00000000000000000, 0.000000000000000000, 7.000000000000000000 ) ) ;
#222 = ADVANCED_FACE ( 'NONE', ( #140, #204 ), #98, .T. ) ;
#223 = DIRECTION ( 'NONE',  ( 1.000000000000000000, 0.000000000000000000, 0.000000000000000000 ) ) ;
#224 = DATE_AND_TIME ( #18, #30 ) ;
#225 = DIRECTION ( 'NONE',  ( 1.000000000000000000, 0.000000000000000000, 0.000000000000000000 ) ) ;
#226 = APPROVAL ( #72, 'NEURÈENÝ' ) ;
#227 = ORIENTED_EDGE ( 'NONE', *, *, #89, .F. ) ;
#228 = CIRCLE ( 'NONE', #101, 11.00000000000000000 ) ;
#229 = APPROVAL_PERSON_ORGANIZATION ( #104, #106, #31 ) ;
#230 = ORIENTED_EDGE ( 'NONE', *, *, #176, .F. ) ;
#231 = ORIENTED_EDGE ( 'NONE', *, *, #159, .T. ) ;
#232 = ORIENTED_EDGE ( 'NONE', *, *, #1, .T. ) ;
#233 = CARTESIAN_POINT ( 'NONE',  ( 0.000000000000000000, 0.000000000000000000, 0.000000000000000000 ) ) ;
#234 = AXIS2_PLACEMENT_3D ( 'NONE', #163, #4, #20 ) ;
#235 = CALENDAR_DATE ( 2023, 13, 2 ) ;
#236 = ADVANCED_BREP_SHAPE_REPRESENTATION ( '5f50', ( #178, #76 ), #96 ) ;
#237 = AXIS2_PLACEMENT_3D ( 'NONE', #233, #51, #49 ) ;
#238 = FACE_OUTER_BOUND ( 'NONE', #37, .T. ) ;
#239 = CARTESIAN_POINT ( 'NONE',  ( 0.000000000000000000, 0.000000000000000000, 7.000000000000000000 ) ) ;
#240 = CARTESIAN_POINT ( 'NONE',  ( 0.000000000000000000, 0.000000000000000000, 7.000000000000000000 ) ) ;
#241 = PERSON_AND_ORGANIZATION_ROLE ( 'creator' ) ;
#242 = CARTESIAN_POINT ( 'NONE',  ( 0.000000000000000000, 0.000000000000000000, 0.000000000000000000 ) ) ;
#243 = APPROVAL_DATE_TIME ( #198, #226 ) ;
#244 = CARTESIAN_POINT ( 'NONE',  ( -8.000000000000000000, 0.000000000000000000, 7.000000000000000000 ) ) ;
#245 = DESIGN_CONTEXT ( 'detailed design', #80, 'design' ) ;
#246 = AXIS2_PLACEMENT_3D ( 'NONE', #188, #11, #119 ) ;
#247 = FACE_OUTER_BOUND ( 'NONE', #45, .T. ) ;
#248 = LINE ( 'NONE', #152, #135 ) ;
#249 = EDGE_CURVE ( 'NONE', #148, #67, #118, .T. ) ;
#250 = VERTEX_POINT ( 'NONE', #187 ) ;
#251 = PERSON_AND_ORGANIZATION_ROLE ( 'design_supplier' ) ;
#252 = ORIENTED_EDGE ( 'NONE', *, *, #9, .T. ) ;
#253 = CARTESIAN_POINT ( 'NONE',  ( -11.00000000000000000, 0.000000000000000000, 7.000000000000000000 ) ) ;
#254 = APPROVAL_ROLE ( '' ) ;
#255 = CALENDAR_DATE ( 2023, 13, 2 ) ;
ENDSEC;
END-ISO-10303-21;
