ISO-10303-21;
HEADER;
FILE_DESCRIPTION (( 'STEP AP203' ),
    '1' );
FILE_NAME ('b842.STEP',
    '2023-01-31T14:33:00',
    ( '' ),
    ( '' ),
    'SwSTEP 2.0',
    'SolidWorks 2019',
    '' );
FILE_SCHEMA (( 'CONFIG_CONTROL_DESIGN' ));
ENDSEC;

DATA;
#1 = CARTESIAN_POINT ( 'NONE',  ( 1.250000000000000000, 1.530808498934191571E-16, 1.199999999999999956 ) ) ;
#2 = CARTESIAN_POINT ( 'NONE',  ( 1.250000000000000000, 1.530808498934191571E-16, 0.000000000000000000 ) ) ;
#3 = CARTESIAN_POINT ( 'NONE',  ( 0.000000000000000000, 0.000000000000000000, 1.199999999999999956 ) ) ;
#4 = CARTESIAN_POINT ( 'NONE',  ( 0.000000000000000000, 0.000000000000000000, 1.199999999999999956 ) ) ;
#5 = CIRCLE ( 'NONE', #48, 0.5000000000000000000 ) ;
#6 = CC_DESIGN_PERSON_AND_ORGANIZATION_ASSIGNMENT ( #79, #122, ( #7 ) ) ;
#7 = PRODUCT_DEFINITION_FORMATION_WITH_SPECIFIED_SOURCE ( 'LIBOVOLNÝ', '', #57, .NOT_KNOWN. ) ;
#8 = MECHANICAL_CONTEXT ( 'NONE', #205, 'mechanical' ) ;
#9 =( NAMED_UNIT ( * ) SI_UNIT ( $, .STERADIAN. ) SOLID_ANGLE_UNIT ( ) );
#10 = VECTOR ( 'NONE', #107, 1000.000000000000000 ) ;
#11 = ADVANCED_FACE ( 'NONE', ( #190 ), #95, .T. ) ;
#12 = ORIENTED_EDGE ( 'NONE', *, *, #171, .T. ) ;
#13 = COORDINATED_UNIVERSAL_TIME_OFFSET ( 1, 0, .AHEAD. ) ;
#14 = CC_DESIGN_DATE_AND_TIME_ASSIGNMENT ( #183, #88, ( #59 ) ) ;
#15 = EDGE_CURVE ( 'NONE', #231, #186, #212, .T. ) ;
#16 = SECURITY_CLASSIFICATION_LEVEL ( 'unclassified' ) ;
#17 = DIRECTION ( 'NONE',  ( 0.000000000000000000, 0.000000000000000000, 1.000000000000000000 ) ) ;
#18 = CIRCLE ( 'NONE', #73, 1.250000000000000000 ) ;
#19 = PLANE ( 'NONE',  #112 ) ;
#20 = CC_DESIGN_PERSON_AND_ORGANIZATION_ASSIGNMENT ( #220, #175, ( #7 ) ) ;
#21 = DIRECTION ( 'NONE',  ( 0.000000000000000000, 0.000000000000000000, 1.000000000000000000 ) ) ;
#22 = DIRECTION ( 'NONE',  ( -0.000000000000000000, -0.000000000000000000, -1.000000000000000000 ) ) ;
#23 = APPROVAL_DATE_TIME ( #58, #51 ) ;
#24 = CARTESIAN_POINT ( 'NONE',  ( 0.000000000000000000, 0.000000000000000000, 0.000000000000000000 ) ) ;
#25 = AXIS2_PLACEMENT_3D ( 'NONE', #98, #238, #242 ) ;
#26 = CARTESIAN_POINT ( 'NONE',  ( 0.000000000000000000, 0.000000000000000000, 100.0000000000000000 ) ) ;
#27 = SHAPE_DEFINITION_REPRESENTATION ( #74, #56 ) ;
#28 = VERTEX_POINT ( 'NONE', #106 ) ;
#29 = EDGE_LOOP ( 'NONE', ( #37, #90 ) ) ;
#30 = DIRECTION ( 'NONE',  ( 1.000000000000000000, 0.000000000000000000, 0.000000000000000000 ) ) ;
#31 = UNCERTAINTY_MEASURE_WITH_UNIT (LENGTH_MEASURE( 1.000000000000000082E-05 ), #64, 'distance_accuracy_value', 'NONE');
#32 = DIRECTION ( 'NONE',  ( -1.000000000000000000, 0.000000000000000000, 0.000000000000000000 ) ) ;
#33 = EDGE_CURVE ( 'NONE', #121, #182, #18, .T. ) ;
#34 = ORIENTED_EDGE ( 'NONE', *, *, #160, .T. ) ;
#35 = CC_DESIGN_APPROVAL ( #91, ( #59 ) ) ;
#36 = ORIENTED_EDGE ( 'NONE', *, *, #176, .F. ) ;
#37 = ORIENTED_EDGE ( 'NONE', *, *, #243, .T. ) ;
#38 = ORIENTED_EDGE ( 'NONE', *, *, #83, .F. ) ;
#39 = PLANE ( 'NONE',  #177 ) ;
#40 = DIRECTION ( 'NONE',  ( -0.000000000000000000, -0.000000000000000000, -1.000000000000000000 ) ) ;
#41 = LINE ( 'NONE', #239, #10 ) ;
#42 = PERSON_AND_ORGANIZATION ( #153, #203 ) ;
#43 = DIRECTION ( 'NONE',  ( -0.000000000000000000, -0.000000000000000000, -1.000000000000000000 ) ) ;
#44 = APPROVAL ( #159, 'NEURÈENÝ' ) ;
#45 = DIRECTION ( 'NONE',  ( 0.000000000000000000, 0.000000000000000000, 1.000000000000000000 ) ) ;
#46 = COORDINATED_UNIVERSAL_TIME_OFFSET ( 1, 0, .AHEAD. ) ;
#47 = PRODUCT_RELATED_PRODUCT_CATEGORY ( 'detail', '', ( #57 ) ) ;
#48 = AXIS2_PLACEMENT_3D ( 'NONE', #148, #53, #92 ) ;
#49 = ORIENTED_EDGE ( 'NONE', *, *, #109, .F. ) ;
#50 = PERSON_AND_ORGANIZATION_ROLE ( 'creator' ) ;
#51 = APPROVAL ( #237, 'NEURÈENÝ' ) ;
#52 = ORIENTED_EDGE ( 'NONE', *, *, #33, .F. ) ;
#53 = DIRECTION ( 'NONE',  ( 0.000000000000000000, 0.000000000000000000, 1.000000000000000000 ) ) ;
#54 = AXIS2_PLACEMENT_3D ( 'NONE', #252, #224, #138 ) ;
#55 = EDGE_LOOP ( 'NONE', ( #70, #230 ) ) ;
#56 = ADVANCED_BREP_SHAPE_REPRESENTATION ( 'b842', ( #93, #152 ), #120 ) ;
#57 = PRODUCT ( 'b842', 'b842', '', ( #8 ) ) ;
#58 = DATE_AND_TIME ( #240, #115 ) ;
#59 = PRODUCT_DEFINITION ( 'NEZNÁMÝ', '', #7, #72 ) ;
#60 = CYLINDRICAL_SURFACE ( 'NONE', #223, 1.250000000000000000 ) ;
#61 = ADVANCED_FACE ( 'NONE', ( #197, #142 ), #39, .T. ) ;
#62 = APPROVAL_ROLE ( '' ) ;
#63 = CYLINDRICAL_SURFACE ( 'NONE', #236, 0.5000000000000000000 ) ;
#64 =( LENGTH_UNIT ( ) NAMED_UNIT ( * ) SI_UNIT ( .MILLI., .METRE. ) );
#65 = VECTOR ( 'NONE', #117, 1000.000000000000000 ) ;
#66 = DIRECTION ( 'NONE',  ( -1.000000000000000000, 0.000000000000000000, 0.000000000000000000 ) ) ;
#67 = APPLICATION_PROTOCOL_DEFINITION ( 'international standard', 'config_control_design', 1994, #205 ) ;
#68 = EDGE_CURVE ( 'NONE', #186, #231, #253, .T. ) ;
#69 = CC_DESIGN_APPROVAL ( #44, ( #250 ) ) ;
#70 = ORIENTED_EDGE ( 'NONE', *, *, #83, .T. ) ;
#71 = APPROVAL_PERSON_ORGANIZATION ( #130, #91, #185 ) ;
#72 = DESIGN_CONTEXT ( 'detailed design', #219, 'design' ) ;
#73 = AXIS2_PLACEMENT_3D ( 'NONE', #193, #17, #241 ) ;
#74 = PRODUCT_DEFINITION_SHAPE ( 'NONE', 'NONE',  #59 ) ;
#75 = PERSON_AND_ORGANIZATION ( #153, #203 ) ;
#76 = FACE_OUTER_BOUND ( 'NONE', #245, .T. ) ;
#77 = CARTESIAN_POINT ( 'NONE',  ( 0.000000000000000000, 0.000000000000000000, 1.199999999999999956 ) ) ;
#78 = PERSON_AND_ORGANIZATION_ROLE ( 'design_owner' ) ;
#79 = PERSON_AND_ORGANIZATION ( #153, #203 ) ;
#80 = DIRECTION ( 'NONE',  ( 1.000000000000000000, 0.000000000000000000, 0.000000000000000000 ) ) ;
#81 = CLOSED_SHELL ( 'NONE', ( #11, #146, #114, #61, #135, #97, #192 ) ) ;
#82 = DIRECTION ( 'NONE',  ( 1.000000000000000000, 0.000000000000000000, 0.000000000000000000 ) ) ;
#83 = EDGE_CURVE ( 'NONE', #118, #254, #94, .T. ) ;
#84 = DIRECTION ( 'NONE',  ( -1.000000000000000000, 0.000000000000000000, 0.000000000000000000 ) ) ;
#85 = APPROVAL_PERSON_ORGANIZATION ( #165, #51, #62 ) ;
#86 = DIRECTION ( 'NONE',  ( 1.000000000000000000, 0.000000000000000000, -0.000000000000000000 ) ) ;
#87 = DIRECTION ( 'NONE',  ( 1.000000000000000000, 0.000000000000000000, 0.000000000000000000 ) ) ;
#88 = DATE_TIME_ROLE ( 'creation_date' ) ;
#89 = ORIENTED_EDGE ( 'NONE', *, *, #208, .F. ) ;
#90 = ORIENTED_EDGE ( 'NONE', *, *, #33, .T. ) ;
#91 = APPROVAL ( #229, 'NEURÈENÝ' ) ;
#92 = DIRECTION ( 'NONE',  ( 1.000000000000000000, 0.000000000000000000, 0.000000000000000000 ) ) ;
#93 = MANIFOLD_SOLID_BREP ( 'Pøidat vysunutím3', #81 ) ;
#94 = CIRCLE ( 'NONE', #127, 0.5000000000000000000 ) ;
#95 = CYLINDRICAL_SURFACE ( 'NONE', #54, 0.5000000000000000000 ) ;
#96 = CARTESIAN_POINT ( 'NONE',  ( -1.250000000000000000, 0.000000000000000000, 1.199999999999999956 ) ) ;
#97 = ADVANCED_FACE ( 'NONE', ( #202 ), #63, .T. ) ;
#98 = CARTESIAN_POINT ( 'NONE',  ( 0.000000000000000000, 0.000000000000000000, 0.000000000000000000 ) ) ;
#99 = CARTESIAN_POINT ( 'NONE',  ( -1.250000000000000000, 0.000000000000000000, 1.199999999999999956 ) ) ;
#100 = ORIENTED_EDGE ( 'NONE', *, *, #243, .F. ) ;
#101 = COORDINATED_UNIVERSAL_TIME_OFFSET ( 1, 0, .AHEAD. ) ;
#102 = FACE_OUTER_BOUND ( 'NONE', #251, .T. ) ;
#103 = CARTESIAN_POINT ( 'NONE',  ( 0.000000000000000000, 0.000000000000000000, 100.0000000000000000 ) ) ;
#104 = APPROVAL_ROLE ( '' ) ;
#105 = CARTESIAN_POINT ( 'NONE',  ( 0.000000000000000000, 0.000000000000000000, 100.0000000000000000 ) ) ;
#106 = CARTESIAN_POINT ( 'NONE',  ( 0.5000000000000000000, 6.123233995736766036E-17, 1.199999999999999956 ) ) ;
#107 = DIRECTION ( 'NONE',  ( -0.000000000000000000, -0.000000000000000000, -1.000000000000000000 ) ) ;
#108 = LOCAL_TIME ( 15, 33, 0.000000000000000000, #46 ) ;
#109 = EDGE_CURVE ( 'NONE', #121, #231, #222, .T. ) ;
#110 = DIRECTION ( 'NONE',  ( 0.000000000000000000, 0.000000000000000000, 1.000000000000000000 ) ) ;
#111 = CALENDAR_DATE ( 2023, 31, 1 ) ;
#112 = AXIS2_PLACEMENT_3D ( 'NONE', #225, #255, #235 ) ;
#113 = PERSON_AND_ORGANIZATION ( #153, #203 ) ;
#114 = ADVANCED_FACE ( 'NONE', ( #179 ), #126, .T. ) ;
#115 = LOCAL_TIME ( 15, 33, 0.000000000000000000, #141 ) ;
#116 = ORIENTED_EDGE ( 'NONE', *, *, #68, .F. ) ;
#117 = DIRECTION ( 'NONE',  ( -0.000000000000000000, -0.000000000000000000, -1.000000000000000000 ) ) ;
#118 = VERTEX_POINT ( 'NONE', #156 ) ;
#119 = CC_DESIGN_APPROVAL ( #51, ( #7 ) ) ;
#120 =( GEOMETRIC_REPRESENTATION_CONTEXT ( 3 ) GLOBAL_UNCERTAINTY_ASSIGNED_CONTEXT ( ( #31 ) ) GLOBAL_UNIT_ASSIGNED_CONTEXT ( ( #64, #161, #9 ) ) REPRESENTATION_CONTEXT ( 'NONE', 'WORKASPACE' ) );
#121 = VERTEX_POINT ( 'NONE', #154 ) ;
#122 = PERSON_AND_ORGANIZATION_ROLE ( 'design_supplier' ) ;
#123 = DIRECTION ( 'NONE',  ( 0.000000000000000000, 0.000000000000000000, 1.000000000000000000 ) ) ;
#124 = CARTESIAN_POINT ( 'NONE',  ( 0.5000000000000000000, 6.123233995736766036E-17, 100.0000000000000000 ) ) ;
#125 = LOCAL_TIME ( 15, 33, 0.000000000000000000, #228 ) ;
#126 = CYLINDRICAL_SURFACE ( 'NONE', #131, 1.250000000000000000 ) ;
#127 = AXIS2_PLACEMENT_3D ( 'NONE', #105, #178, #80 ) ;
#128 = CC_DESIGN_SECURITY_CLASSIFICATION ( #250, ( #7 ) ) ;
#129 = APPROVAL_DATE_TIME ( #168, #91 ) ;
#130 = PERSON_AND_ORGANIZATION ( #153, #203 ) ;
#131 = AXIS2_PLACEMENT_3D ( 'NONE', #77, #43, #66 ) ;
#132 = ORIENTED_EDGE ( 'NONE', *, *, #167, .F. ) ;
#133 = CALENDAR_DATE ( 2023, 31, 1 ) ;
#134 = AXIS2_PLACEMENT_3D ( 'NONE', #103, #180, #82 ) ;
#135 = ADVANCED_FACE ( 'NONE', ( #76 ), #19, .F. ) ;
#136 = ORIENTED_EDGE ( 'NONE', *, *, #15, .T. ) ;
#137 = CC_DESIGN_PERSON_AND_ORGANIZATION_ASSIGNMENT ( #113, #50, ( #59 ) ) ;
#138 = DIRECTION ( 'NONE',  ( -1.000000000000000000, 0.000000000000000000, 0.000000000000000000 ) ) ;
#139 = FACE_OUTER_BOUND ( 'NONE', #55, .T. ) ;
#140 = CARTESIAN_POINT ( 'NONE',  ( 0.000000000000000000, 0.000000000000000000, 1.199999999999999956 ) ) ;
#141 = COORDINATED_UNIVERSAL_TIME_OFFSET ( 1, 0, .AHEAD. ) ;
#142 = FACE_OUTER_BOUND ( 'NONE', #29, .T. ) ;
#143 = DIRECTION ( 'NONE',  ( 1.000000000000000000, 0.000000000000000000, 0.000000000000000000 ) ) ;
#144 = DIRECTION ( 'NONE',  ( 0.000000000000000000, 0.000000000000000000, 1.000000000000000000 ) ) ;
#145 = ORIENTED_EDGE ( 'NONE', *, *, #15, .F. ) ;
#146 = ADVANCED_FACE ( 'NONE', ( #102 ), #60, .T. ) ;
#147 = EDGE_LOOP ( 'NONE', ( #150, #132 ) ) ;
#148 = CARTESIAN_POINT ( 'NONE',  ( 0.000000000000000000, 0.000000000000000000, 1.199999999999999956 ) ) ;
#149 = EDGE_LOOP ( 'NONE', ( #187, #191, #170, #200 ) ) ;
#150 = ORIENTED_EDGE ( 'NONE', *, *, #160, .F. ) ;
#151 = EDGE_LOOP ( 'NONE', ( #89, #38, #12, #34 ) ) ;
#152 = AXIS2_PLACEMENT_3D ( 'NONE', #24, #110, #87 ) ;
#153 = PERSON ( 'NEURÈENÝ', 'NEURÈENÝ', 'NEURÈENÝ', ('NEURÈENÝ'), ('NEURÈENÝ'), ('NEURÈENÝ') ) ;
#154 = CARTESIAN_POINT ( 'NONE',  ( 1.250000000000000000, 1.530808498934191571E-16, 1.199999999999999956 ) ) ;
#155 = CARTESIAN_POINT ( 'NONE',  ( -1.250000000000000000, 0.000000000000000000, 0.000000000000000000 ) ) ;
#156 = CARTESIAN_POINT ( 'NONE',  ( -0.5000000000000000000, 0.000000000000000000, 100.0000000000000000 ) ) ;
#157 = CARTESIAN_POINT ( 'NONE',  ( -0.5000000000000000000, 0.000000000000000000, 1.199999999999999956 ) ) ;
#158 = DATE_TIME_ROLE ( 'classification_date' ) ;
#159 = APPROVAL_STATUS ( 'not_yet_approved' ) ;
#160 = EDGE_CURVE ( 'NONE', #207, #28, #249, .T. ) ;
#161 =( NAMED_UNIT ( * ) PLANE_ANGLE_UNIT ( ) SI_UNIT ( $, .RADIAN. ) );
#162 = CIRCLE ( 'NONE', #134, 0.5000000000000000000 ) ;
#163 = APPROVAL_DATE_TIME ( #184, #44 ) ;
#164 = PLANE ( 'NONE',  #166 ) ;
#165 = PERSON_AND_ORGANIZATION ( #153, #203 ) ;
#166 = AXIS2_PLACEMENT_3D ( 'NONE', #181, #21, #86 ) ;
#167 = EDGE_CURVE ( 'NONE', #28, #207, #5, .T. ) ;
#168 = DATE_AND_TIME ( #133, #125 ) ;
#169 = LINE ( 'NONE', #188, #65 ) ;
#170 = ORIENTED_EDGE ( 'NONE', *, *, #167, .T. ) ;
#171 = EDGE_CURVE ( 'NONE', #118, #207, #169, .T. ) ;
#172 = DIRECTION ( 'NONE',  ( -0.000000000000000000, -0.000000000000000000, -1.000000000000000000 ) ) ;
#173 = AXIS2_PLACEMENT_3D ( 'NONE', #244, #209, #30 ) ;
#174 = PERSON_AND_ORGANIZATION ( #153, #203 ) ;
#175 = PERSON_AND_ORGANIZATION_ROLE ( 'creator' ) ;
#176 = EDGE_CURVE ( 'NONE', #182, #186, #232, .T. ) ;
#177 = AXIS2_PLACEMENT_3D ( 'NONE', #3, #45, #199 ) ;
#178 = DIRECTION ( 'NONE',  ( 0.000000000000000000, 0.000000000000000000, 1.000000000000000000 ) ) ;
#179 = FACE_OUTER_BOUND ( 'NONE', #206, .T. ) ;
#180 = DIRECTION ( 'NONE',  ( 0.000000000000000000, 0.000000000000000000, 1.000000000000000000 ) ) ;
#181 = CARTESIAN_POINT ( 'NONE',  ( 0.000000000000000000, 0.000000000000000000, 100.0000000000000000 ) ) ;
#182 = VERTEX_POINT ( 'NONE', #99 ) ;
#183 = DATE_AND_TIME ( #111, #189 ) ;
#184 = DATE_AND_TIME ( #226, #108 ) ;
#185 = APPROVAL_ROLE ( '' ) ;
#186 = VERTEX_POINT ( 'NONE', #155 ) ;
#187 = ORIENTED_EDGE ( 'NONE', *, *, #247, .F. ) ;
#188 = CARTESIAN_POINT ( 'NONE',  ( -0.5000000000000000000, 0.000000000000000000, 100.0000000000000000 ) ) ;
#189 = LOCAL_TIME ( 15, 33, 0.000000000000000000, #13 ) ;
#190 = FACE_OUTER_BOUND ( 'NONE', #149, .T. ) ;
#191 = ORIENTED_EDGE ( 'NONE', *, *, #208, .T. ) ;
#192 = ADVANCED_FACE ( 'NONE', ( #139 ), #164, .T. ) ;
#193 = CARTESIAN_POINT ( 'NONE',  ( 0.000000000000000000, 0.000000000000000000, 1.199999999999999956 ) ) ;
#194 = DIRECTION ( 'NONE',  ( -0.000000000000000000, -0.000000000000000000, -1.000000000000000000 ) ) ;
#195 = DATE_AND_TIME ( #217, #216 ) ;
#196 = ORIENTED_EDGE ( 'NONE', *, *, #68, .T. ) ;
#197 = FACE_BOUND ( 'NONE', #147, .T. ) ;
#198 = VECTOR ( 'NONE', #194, 1000.000000000000000 ) ;
#199 = DIRECTION ( 'NONE',  ( 1.000000000000000000, 0.000000000000000000, -0.000000000000000000 ) ) ;
#200 = ORIENTED_EDGE ( 'NONE', *, *, #171, .F. ) ;
#201 = AXIS2_PLACEMENT_3D ( 'NONE', #234, #123, #218 ) ;
#202 = FACE_OUTER_BOUND ( 'NONE', #151, .T. ) ;
#203 = ORGANIZATION ( 'NEURÈENÝ', 'NEURÈENÝ', '' ) ;
#204 = CC_DESIGN_PERSON_AND_ORGANIZATION_ASSIGNMENT ( #75, #233, ( #250 ) ) ;
#205 = APPLICATION_CONTEXT ( 'configuration controlled 3d designs of mechanical parts and assemblies' ) ;
#206 = EDGE_LOOP ( 'NONE', ( #49, #100, #214, #196 ) ) ;
#207 = VERTEX_POINT ( 'NONE', #157 ) ;
#208 = EDGE_CURVE ( 'NONE', #254, #28, #41, .T. ) ;
#209 = DIRECTION ( 'NONE',  ( 0.000000000000000000, 0.000000000000000000, 1.000000000000000000 ) ) ;
#210 = CIRCLE ( 'NONE', #213, 1.250000000000000000 ) ;
#211 = APPLICATION_PROTOCOL_DEFINITION ( 'international standard', 'config_control_design', 1994, #219 ) ;
#212 = CIRCLE ( 'NONE', #201, 1.250000000000000000 ) ;
#213 = AXIS2_PLACEMENT_3D ( 'NONE', #4, #144, #143 ) ;
#214 = ORIENTED_EDGE ( 'NONE', *, *, #176, .T. ) ;
#215 = CC_DESIGN_DATE_AND_TIME_ASSIGNMENT ( #195, #158, ( #250 ) ) ;
#216 = LOCAL_TIME ( 15, 33, 0.000000000000000000, #101 ) ;
#217 = CALENDAR_DATE ( 2023, 31, 1 ) ;
#218 = DIRECTION ( 'NONE',  ( 1.000000000000000000, 0.000000000000000000, 0.000000000000000000 ) ) ;
#219 = APPLICATION_CONTEXT ( 'configuration controlled 3d designs of mechanical parts and assemblies' ) ;
#220 = PERSON_AND_ORGANIZATION ( #153, #203 ) ;
#221 = VECTOR ( 'NONE', #172, 1000.000000000000000 ) ;
#222 = LINE ( 'NONE', #1, #221 ) ;
#223 = AXIS2_PLACEMENT_3D ( 'NONE', #140, #40, #32 ) ;
#224 = DIRECTION ( 'NONE',  ( -0.000000000000000000, -0.000000000000000000, -1.000000000000000000 ) ) ;
#225 = CARTESIAN_POINT ( 'NONE',  ( 0.000000000000000000, 0.000000000000000000, 0.000000000000000000 ) ) ;
#226 = CALENDAR_DATE ( 2023, 31, 1 ) ;
#227 = CC_DESIGN_PERSON_AND_ORGANIZATION_ASSIGNMENT ( #174, #78, ( #57 ) ) ;
#228 = COORDINATED_UNIVERSAL_TIME_OFFSET ( 1, 0, .AHEAD. ) ;
#229 = APPROVAL_STATUS ( 'not_yet_approved' ) ;
#230 = ORIENTED_EDGE ( 'NONE', *, *, #247, .T. ) ;
#231 = VERTEX_POINT ( 'NONE', #2 ) ;
#232 = LINE ( 'NONE', #96, #198 ) ;
#233 = PERSON_AND_ORGANIZATION_ROLE ( 'classification_officer' ) ;
#234 = CARTESIAN_POINT ( 'NONE',  ( 0.000000000000000000, 0.000000000000000000, 0.000000000000000000 ) ) ;
#235 = DIRECTION ( 'NONE',  ( 1.000000000000000000, 0.000000000000000000, -0.000000000000000000 ) ) ;
#236 = AXIS2_PLACEMENT_3D ( 'NONE', #26, #22, #84 ) ;
#237 = APPROVAL_STATUS ( 'not_yet_approved' ) ;
#238 = DIRECTION ( 'NONE',  ( 0.000000000000000000, 0.000000000000000000, 1.000000000000000000 ) ) ;
#239 = CARTESIAN_POINT ( 'NONE',  ( 0.5000000000000000000, 6.123233995736766036E-17, 100.0000000000000000 ) ) ;
#240 = CALENDAR_DATE ( 2023, 31, 1 ) ;
#241 = DIRECTION ( 'NONE',  ( 1.000000000000000000, 0.000000000000000000, 0.000000000000000000 ) ) ;
#242 = DIRECTION ( 'NONE',  ( 1.000000000000000000, 0.000000000000000000, 0.000000000000000000 ) ) ;
#243 = EDGE_CURVE ( 'NONE', #182, #121, #210, .T. ) ;
#244 = CARTESIAN_POINT ( 'NONE',  ( 0.000000000000000000, 0.000000000000000000, 1.199999999999999956 ) ) ;
#245 = EDGE_LOOP ( 'NONE', ( #116, #145 ) ) ;
#246 = APPROVAL_PERSON_ORGANIZATION ( #42, #44, #104 ) ;
#247 = EDGE_CURVE ( 'NONE', #254, #118, #162, .T. ) ;
#248 = ORIENTED_EDGE ( 'NONE', *, *, #109, .T. ) ;
#249 = CIRCLE ( 'NONE', #173, 0.5000000000000000000 ) ;
#250 = SECURITY_CLASSIFICATION ( '', '', #16 ) ;
#251 = EDGE_LOOP ( 'NONE', ( #52, #248, #136, #36 ) ) ;
#252 = CARTESIAN_POINT ( 'NONE',  ( 0.000000000000000000, 0.000000000000000000, 100.0000000000000000 ) ) ;
#253 = CIRCLE ( 'NONE', #25, 1.250000000000000000 ) ;
#254 = VERTEX_POINT ( 'NONE', #124 ) ;
#255 = DIRECTION ( 'NONE',  ( 0.000000000000000000, 0.000000000000000000, 1.000000000000000000 ) ) ;
ENDSEC;
END-ISO-10303-21;
