ISO-10303-21;
HEADER;
FILE_DESCRIPTION (( 'STEP AP203' ),
    '1' );
FILE_NAME ('626c.STEP',
    '2023-01-31T14:48:57',
    ( '' ),
    ( '' ),
    'SwSTEP 2.0',
    'SolidWorks 2019',
    '' );
FILE_SCHEMA (( 'CONFIG_CONTROL_DESIGN' ));
ENDSEC;

DATA;
#1 = DIRECTION ( 'NONE',  ( 0.000000000000000000, 0.000000000000000000, 1.000000000000000000 ) ) ;
#2 = CARTESIAN_POINT ( 'NONE',  ( 0.5000000000000000000, 6.123233995736766036E-17, 1.199999999999999956 ) ) ;
#3 = CIRCLE ( 'NONE', #107, 1.250000000000000000 ) ;
#4 = CALENDAR_DATE ( 2023, 31, 1 ) ;
#5 = DIRECTION ( 'NONE',  ( -0.000000000000000000, -0.000000000000000000, -1.000000000000000000 ) ) ;
#6 = CARTESIAN_POINT ( 'NONE',  ( 0.000000000000000000, 0.000000000000000000, 1.199999999999999956 ) ) ;
#7 = CARTESIAN_POINT ( 'NONE',  ( 0.5000000000000000000, 6.123233995736766036E-17, 100.0000000000000000 ) ) ;
#8 = COORDINATED_UNIVERSAL_TIME_OFFSET ( 1, 0, .AHEAD. ) ;
#9 = CARTESIAN_POINT ( 'NONE',  ( 0.000000000000000000, 0.000000000000000000, 0.000000000000000000 ) ) ;
#10 = ORIENTED_EDGE ( 'NONE', *, *, #29, .T. ) ;
#11 = ORIENTED_EDGE ( 'NONE', *, *, #64, .T. ) ;
#12 = ORIENTED_EDGE ( 'NONE', *, *, #115, .F. ) ;
#13 = DIRECTION ( 'NONE',  ( 0.000000000000000000, 0.000000000000000000, 1.000000000000000000 ) ) ;
#14 = ADVANCED_FACE ( 'NONE', ( #27 ), #152, .T. ) ;
#15 = ORIENTED_EDGE ( 'NONE', *, *, #181, .F. ) ;
#16 = DIRECTION ( 'NONE',  ( 0.000000000000000000, 0.000000000000000000, 1.000000000000000000 ) ) ;
#17 = APPROVAL_ROLE ( '' ) ;
#18 = DIRECTION ( 'NONE',  ( 1.000000000000000000, 0.000000000000000000, 0.000000000000000000 ) ) ;
#19 = PERSON_AND_ORGANIZATION ( #217, #204 ) ;
#20 = PERSON_AND_ORGANIZATION ( #217, #204 ) ;
#21 = VECTOR ( 'NONE', #221, 1000.000000000000000 ) ;
#22 = DIRECTION ( 'NONE',  ( 1.000000000000000000, 0.000000000000000000, 0.000000000000000000 ) ) ;
#23 = ADVANCED_FACE ( 'NONE', ( #63 ), #234, .T. ) ;
#24 = APPROVAL_ROLE ( '' ) ;
#25 = ORIENTED_EDGE ( 'NONE', *, *, #167, .T. ) ;
#26 = ORIENTED_EDGE ( 'NONE', *, *, #122, .F. ) ;
#27 = FACE_OUTER_BOUND ( 'NONE', #87, .T. ) ;
#28 = AXIS2_PLACEMENT_3D ( 'NONE', #192, #13, #124 ) ;
#29 = EDGE_CURVE ( 'NONE', #252, #233, #131, .T. ) ;
#30 = CYLINDRICAL_SURFACE ( 'NONE', #194, 1.250000000000000000 ) ;
#31 = FACE_OUTER_BOUND ( 'NONE', #218, .T. ) ;
#32 =( NAMED_UNIT ( * ) SI_UNIT ( $, .STERADIAN. ) SOLID_ANGLE_UNIT ( ) );
#33 = APPLICATION_CONTEXT ( 'configuration controlled 3d designs of mechanical parts and assemblies' ) ;
#34 = CARTESIAN_POINT ( 'NONE',  ( 0.5000000000000000000, 6.123233995736766036E-17, 100.0000000000000000 ) ) ;
#35 = LINE ( 'NONE', #47, #79 ) ;
#36 = EDGE_CURVE ( 'NONE', #105, #233, #70, .T. ) ;
#37 = DATE_AND_TIME ( #185, #160 ) ;
#38 = EDGE_LOOP ( 'NONE', ( #172, #62 ) ) ;
#39 = COORDINATED_UNIVERSAL_TIME_OFFSET ( 1, 0, .AHEAD. ) ;
#40 = ORIENTED_EDGE ( 'NONE', *, *, #251, .T. ) ;
#41 = CLOSED_SHELL ( 'NONE', ( #55, #242, #232, #207, #154, #14, #23 ) ) ;
#42 = ORIENTED_EDGE ( 'NONE', *, *, #167, .F. ) ;
#43 = APPROVAL_PERSON_ORGANIZATION ( #120, #136, #246 ) ;
#44 = ORIENTED_EDGE ( 'NONE', *, *, #36, .T. ) ;
#45 = ORIENTED_EDGE ( 'NONE', *, *, #75, .T. ) ;
#46 = CC_DESIGN_DATE_AND_TIME_ASSIGNMENT ( #37, #119, ( #127 ) ) ;
#47 = CARTESIAN_POINT ( 'NONE',  ( 1.250000000000000000, 1.530808498934191571E-16, 1.199999999999999956 ) ) ;
#48 = FACE_OUTER_BOUND ( 'NONE', #151, .T. ) ;
#49 = APPROVAL_STATUS ( 'not_yet_approved' ) ;
#50 = LOCAL_TIME ( 15, 48, 57.00000000000000000, #178 ) ;
#51 = CIRCLE ( 'NONE', #210, 1.250000000000000000 ) ;
#52 = CC_DESIGN_PERSON_AND_ORGANIZATION_ASSIGNMENT ( #19, #74, ( #86 ) ) ;
#53 = MECHANICAL_CONTEXT ( 'NONE', #220, 'mechanical' ) ;
#54 = PRODUCT ( '626c', '626c', '', ( #53 ) ) ;
#55 = ADVANCED_FACE ( 'NONE', ( #48 ), #113, .T. ) ;
#56 = CIRCLE ( 'NONE', #214, 0.5000000000000000000 ) ;
#57 = DIRECTION ( 'NONE',  ( 0.000000000000000000, 0.000000000000000000, 1.000000000000000000 ) ) ;
#58 = CALENDAR_DATE ( 2023, 31, 1 ) ;
#59 = CARTESIAN_POINT ( 'NONE',  ( 0.000000000000000000, 0.000000000000000000, 0.000000000000000000 ) ) ;
#60 = PERSON_AND_ORGANIZATION ( #217, #204 ) ;
#61 = DATE_AND_TIME ( #243, #50 ) ;
#62 = ORIENTED_EDGE ( 'NONE', *, *, #181, .T. ) ;
#63 = FACE_OUTER_BOUND ( 'NONE', #38, .T. ) ;
#64 = EDGE_CURVE ( 'NONE', #233, #105, #249, .T. ) ;
#65 = AXIS2_PLACEMENT_3D ( 'NONE', #66, #138, #237 ) ;
#66 = CARTESIAN_POINT ( 'NONE',  ( 0.000000000000000000, 0.000000000000000000, 0.000000000000000000 ) ) ;
#67 = AXIS2_PLACEMENT_3D ( 'NONE', #223, #200, #18 ) ;
#68 = DIRECTION ( 'NONE',  ( 0.000000000000000000, 0.000000000000000000, 1.000000000000000000 ) ) ;
#69 = PRODUCT_RELATED_PRODUCT_CATEGORY ( 'detail', '', ( #54 ) ) ;
#70 = CIRCLE ( 'NONE', #28, 0.5000000000000000000 ) ;
#71 = AXIS2_PLACEMENT_3D ( 'NONE', #9, #143, #162 ) ;
#72 = DATE_AND_TIME ( #4, #163 ) ;
#73 = DIRECTION ( 'NONE',  ( 1.000000000000000000, 0.000000000000000000, 0.000000000000000000 ) ) ;
#74 = PERSON_AND_ORGANIZATION_ROLE ( 'creator' ) ;
#75 = EDGE_CURVE ( 'NONE', #128, #247, #187, .T. ) ;
#76 = CARTESIAN_POINT ( 'NONE',  ( -1.250000000000000000, 0.000000000000000000, 0.000000000000000000 ) ) ;
#77 = CARTESIAN_POINT ( 'NONE',  ( 0.000000000000000000, 0.000000000000000000, 1.199999999999999956 ) ) ;
#78 = FACE_OUTER_BOUND ( 'NONE', #170, .T. ) ;
#79 = VECTOR ( 'NONE', #114, 1000.000000000000000 ) ;
#80 = CIRCLE ( 'NONE', #203, 0.5000000000000000000 ) ;
#81 = DATE_TIME_ROLE ( 'creation_date' ) ;
#82 = CC_DESIGN_APPROVAL ( #186, ( #86 ) ) ;
#83 = LOCAL_TIME ( 15, 48, 57.00000000000000000, #166 ) ;
#84 = APPROVAL_DATE_TIME ( #164, #169 ) ;
#85 = EDGE_LOOP ( 'NONE', ( #101, #255 ) ) ;
#86 = PRODUCT_DEFINITION ( 'NEZNÁMÝ', '', #104, #173 ) ;
#87 = EDGE_LOOP ( 'NONE', ( #198, #174, #10, #11 ) ) ;
#88 = CC_DESIGN_PERSON_AND_ORGANIZATION_ASSIGNMENT ( #123, #188, ( #104 ) ) ;
#89 = DIRECTION ( 'NONE',  ( -1.000000000000000000, 0.000000000000000000, 0.000000000000000000 ) ) ;
#90 = CARTESIAN_POINT ( 'NONE',  ( 0.000000000000000000, 0.000000000000000000, 100.0000000000000000 ) ) ;
#91 = ORIENTED_EDGE ( 'NONE', *, *, #250, .T. ) ;
#92 = AXIS2_PLACEMENT_3D ( 'NONE', #77, #16, #141 ) ;
#93 = DIRECTION ( 'NONE',  ( -0.000000000000000000, -0.000000000000000000, -1.000000000000000000 ) ) ;
#94 = FACE_OUTER_BOUND ( 'NONE', #213, .T. ) ;
#95 = DIRECTION ( 'NONE',  ( 1.000000000000000000, 0.000000000000000000, 0.000000000000000000 ) ) ;
#96 = PERSON_AND_ORGANIZATION ( #217, #204 ) ;
#97 = DIRECTION ( 'NONE',  ( 0.000000000000000000, 0.000000000000000000, 1.000000000000000000 ) ) ;
#98 = AXIS2_PLACEMENT_3D ( 'NONE', #106, #108, #89 ) ;
#99 = DATE_AND_TIME ( #58, #83 ) ;
#100 = PLANE ( 'NONE',  #71 ) ;
#101 = ORIENTED_EDGE ( 'NONE', *, *, #64, .F. ) ;
#102 = EDGE_CURVE ( 'NONE', #139, #103, #245, .T. ) ;
#103 = VERTEX_POINT ( 'NONE', #193 ) ;
#104 = PRODUCT_DEFINITION_FORMATION_WITH_SPECIFIED_SOURCE ( 'LIBOVOLNÝ', '', #54, .NOT_KNOWN. ) ;
#105 = VERTEX_POINT ( 'NONE', #2 ) ;
#106 = CARTESIAN_POINT ( 'NONE',  ( 0.000000000000000000, 0.000000000000000000, 100.0000000000000000 ) ) ;
#107 = AXIS2_PLACEMENT_3D ( 'NONE', #59, #57, #145 ) ;
#108 = DIRECTION ( 'NONE',  ( -0.000000000000000000, -0.000000000000000000, -1.000000000000000000 ) ) ;
#109 = DIRECTION ( 'NONE',  ( -0.000000000000000000, -0.000000000000000000, -1.000000000000000000 ) ) ;
#110 = DIRECTION ( 'NONE',  ( -1.000000000000000000, 0.000000000000000000, 0.000000000000000000 ) ) ;
#111 = FACE_BOUND ( 'NONE', #85, .T. ) ;
#112 = AXIS2_PLACEMENT_3D ( 'NONE', #142, #5, #226 ) ;
#113 = CYLINDRICAL_SURFACE ( 'NONE', #130, 0.5000000000000000000 ) ;
#114 = DIRECTION ( 'NONE',  ( -0.000000000000000000, -0.000000000000000000, -1.000000000000000000 ) ) ;
#115 = EDGE_CURVE ( 'NONE', #103, #128, #161, .T. ) ;
#116 = FACE_OUTER_BOUND ( 'NONE', #216, .T. ) ;
#117 = CARTESIAN_POINT ( 'NONE',  ( 0.000000000000000000, 0.000000000000000000, 1.199999999999999956 ) ) ;
#118 = PRODUCT_DEFINITION_SHAPE ( 'NONE', 'NONE',  #86 ) ;
#119 = DATE_TIME_ROLE ( 'classification_date' ) ;
#120 = PERSON_AND_ORGANIZATION ( #217, #204 ) ;
#121 = APPROVAL_DATE_TIME ( #99, #136 ) ;
#122 = EDGE_CURVE ( 'NONE', #103, #139, #51, .T. ) ;
#123 = PERSON_AND_ORGANIZATION ( #217, #204 ) ;
#124 = DIRECTION ( 'NONE',  ( 1.000000000000000000, 0.000000000000000000, 0.000000000000000000 ) ) ;
#125 = CC_DESIGN_PERSON_AND_ORGANIZATION_ASSIGNMENT ( #147, #144, ( #104 ) ) ;
#126 = ORIENTED_EDGE ( 'NONE', *, *, #102, .T. ) ;
#127 = SECURITY_CLASSIFICATION ( '', '', #183 ) ;
#128 = VERTEX_POINT ( 'NONE', #76 ) ;
#129 = DIRECTION ( 'NONE',  ( 1.000000000000000000, 0.000000000000000000, -0.000000000000000000 ) ) ;
#130 = AXIS2_PLACEMENT_3D ( 'NONE', #132, #239, #110 ) ;
#131 = LINE ( 'NONE', #219, #253 ) ;
#132 = CARTESIAN_POINT ( 'NONE',  ( 0.000000000000000000, 0.000000000000000000, 100.0000000000000000 ) ) ;
#133 = CC_DESIGN_PERSON_AND_ORGANIZATION_ASSIGNMENT ( #20, #159, ( #54 ) ) ;
#134 = LINE ( 'NONE', #34, #21 ) ;
#135 = CARTESIAN_POINT ( 'NONE',  ( -0.5000000000000000000, 0.000000000000000000, 100.0000000000000000 ) ) ;
#136 = APPROVAL ( #211, 'NEURÈENÝ' ) ;
#137 =( GEOMETRIC_REPRESENTATION_CONTEXT ( 3 ) GLOBAL_UNCERTAINTY_ASSIGNED_CONTEXT ( ( #190 ) ) GLOBAL_UNIT_ASSIGNED_CONTEXT ( ( #195, #176, #32 ) ) REPRESENTATION_CONTEXT ( 'NONE', 'WORKASPACE' ) );
#138 = DIRECTION ( 'NONE',  ( 0.000000000000000000, 0.000000000000000000, 1.000000000000000000 ) ) ;
#139 = VERTEX_POINT ( 'NONE', #180 ) ;
#140 = DIRECTION ( 'NONE',  ( -1.000000000000000000, 0.000000000000000000, 0.000000000000000000 ) ) ;
#141 = DIRECTION ( 'NONE',  ( 1.000000000000000000, 0.000000000000000000, -0.000000000000000000 ) ) ;
#142 = CARTESIAN_POINT ( 'NONE',  ( 0.000000000000000000, 0.000000000000000000, 1.199999999999999956 ) ) ;
#143 = DIRECTION ( 'NONE',  ( 0.000000000000000000, 0.000000000000000000, 1.000000000000000000 ) ) ;
#144 = PERSON_AND_ORGANIZATION_ROLE ( 'creator' ) ;
#145 = DIRECTION ( 'NONE',  ( 1.000000000000000000, 0.000000000000000000, 0.000000000000000000 ) ) ;
#146 = ORIENTED_EDGE ( 'NONE', *, *, #122, .T. ) ;
#147 = PERSON_AND_ORGANIZATION ( #217, #204 ) ;
#148 = DIRECTION ( 'NONE',  ( 0.000000000000000000, 0.000000000000000000, 1.000000000000000000 ) ) ;
#149 = MANIFOLD_SOLID_BREP ( 'Pøidat vysunutím3', #41 ) ;
#150 = VERTEX_POINT ( 'NONE', #7 ) ;
#151 = EDGE_LOOP ( 'NONE', ( #15, #91, #44, #231 ) ) ;
#152 = CYLINDRICAL_SURFACE ( 'NONE', #98, 0.5000000000000000000 ) ;
#153 = APPROVAL_PERSON_ORGANIZATION ( #96, #186, #17 ) ;
#154 = ADVANCED_FACE ( 'NONE', ( #78 ), #100, .F. ) ;
#155 = LOCAL_TIME ( 15, 48, 57.00000000000000000, #39 ) ;
#156 = CC_DESIGN_DATE_AND_TIME_ASSIGNMENT ( #61, #81, ( #86 ) ) ;
#157 = DIRECTION ( 'NONE',  ( 0.000000000000000000, 0.000000000000000000, 1.000000000000000000 ) ) ;
#158 = AXIS2_PLACEMENT_3D ( 'NONE', #90, #1, #129 ) ;
#159 = PERSON_AND_ORGANIZATION_ROLE ( 'design_owner' ) ;
#160 = LOCAL_TIME ( 15, 48, 57.00000000000000000, #8 ) ;
#161 = LINE ( 'NONE', #227, #196 ) ;
#162 = DIRECTION ( 'NONE',  ( 1.000000000000000000, 0.000000000000000000, -0.000000000000000000 ) ) ;
#163 = LOCAL_TIME ( 15, 48, 57.00000000000000000, #177 ) ;
#164 = DATE_AND_TIME ( #182, #155 ) ;
#165 = APPROVAL_PERSON_ORGANIZATION ( #60, #169, #24 ) ;
#166 = COORDINATED_UNIVERSAL_TIME_OFFSET ( 1, 0, .AHEAD. ) ;
#167 = EDGE_CURVE ( 'NONE', #247, #128, #3, .T. ) ;
#168 = SHAPE_DEFINITION_REPRESENTATION ( #118, #191 ) ;
#169 = APPROVAL ( #228, 'NEURÈENÝ' ) ;
#170 = EDGE_LOOP ( 'NONE', ( #254, #42 ) ) ;
#171 = ORIENTED_EDGE ( 'NONE', *, *, #115, .T. ) ;
#172 = ORIENTED_EDGE ( 'NONE', *, *, #206, .T. ) ;
#173 = DESIGN_CONTEXT ( 'detailed design', #33, 'design' ) ;
#174 = ORIENTED_EDGE ( 'NONE', *, *, #206, .F. ) ;
#175 = AXIS2_PLACEMENT_3D ( 'NONE', #201, #157, #95 ) ;
#176 =( NAMED_UNIT ( * ) PLANE_ANGLE_UNIT ( ) SI_UNIT ( $, .RADIAN. ) );
#177 = COORDINATED_UNIVERSAL_TIME_OFFSET ( 1, 0, .AHEAD. ) ;
#178 = COORDINATED_UNIVERSAL_TIME_OFFSET ( 1, 0, .AHEAD. ) ;
#179 = PLANE ( 'NONE',  #92 ) ;
#180 = CARTESIAN_POINT ( 'NONE',  ( 1.250000000000000000, 1.530808498934191571E-16, 1.199999999999999956 ) ) ;
#181 = EDGE_CURVE ( 'NONE', #150, #252, #80, .T. ) ;
#182 = CALENDAR_DATE ( 2023, 31, 1 ) ;
#183 = SECURITY_CLASSIFICATION_LEVEL ( 'unclassified' ) ;
#184 = DIRECTION ( 'NONE',  ( -0.000000000000000000, -0.000000000000000000, -1.000000000000000000 ) ) ;
#185 = CALENDAR_DATE ( 2023, 31, 1 ) ;
#186 = APPROVAL ( #49, 'NEURÈENÝ' ) ;
#187 = CIRCLE ( 'NONE', #65, 1.250000000000000000 ) ;
#188 = PERSON_AND_ORGANIZATION_ROLE ( 'design_supplier' ) ;
#189 = CC_DESIGN_APPROVAL ( #169, ( #104 ) ) ;
#190 = UNCERTAINTY_MEASURE_WITH_UNIT (LENGTH_MEASURE( 1.000000000000000082E-05 ), #195, 'distance_accuracy_value', 'NONE');
#191 = ADVANCED_BREP_SHAPE_REPRESENTATION ( '626c', ( #149, #175 ), #137 ) ;
#192 = CARTESIAN_POINT ( 'NONE',  ( 0.000000000000000000, 0.000000000000000000, 1.199999999999999956 ) ) ;
#193 = CARTESIAN_POINT ( 'NONE',  ( -1.250000000000000000, 0.000000000000000000, 1.199999999999999956 ) ) ;
#194 = AXIS2_PLACEMENT_3D ( 'NONE', #6, #93, #140 ) ;
#195 =( LENGTH_UNIT ( ) NAMED_UNIT ( * ) SI_UNIT ( .MILLI., .METRE. ) );
#196 = VECTOR ( 'NONE', #184, 1000.000000000000000 ) ;
#197 = CC_DESIGN_APPROVAL ( #136, ( #127 ) ) ;
#198 = ORIENTED_EDGE ( 'NONE', *, *, #250, .F. ) ;
#199 = DIRECTION ( 'NONE',  ( 1.000000000000000000, 0.000000000000000000, 0.000000000000000000 ) ) ;
#200 = DIRECTION ( 'NONE',  ( 0.000000000000000000, 0.000000000000000000, 1.000000000000000000 ) ) ;
#201 = CARTESIAN_POINT ( 'NONE',  ( 0.000000000000000000, 0.000000000000000000, 0.000000000000000000 ) ) ;
#202 = APPROVAL_DATE_TIME ( #72, #186 ) ;
#203 = AXIS2_PLACEMENT_3D ( 'NONE', #229, #209, #22 ) ;
#204 = ORGANIZATION ( 'NEURÈENÝ', 'NEURÈENÝ', '' ) ;
#205 = CARTESIAN_POINT ( 'NONE',  ( 0.000000000000000000, 0.000000000000000000, 1.199999999999999956 ) ) ;
#206 = EDGE_CURVE ( 'NONE', #252, #150, #56, .T. ) ;
#207 = ADVANCED_FACE ( 'NONE', ( #111, #116 ), #179, .T. ) ;
#208 = DIRECTION ( 'NONE',  ( 1.000000000000000000, 0.000000000000000000, 0.000000000000000000 ) ) ;
#209 = DIRECTION ( 'NONE',  ( 0.000000000000000000, 0.000000000000000000, 1.000000000000000000 ) ) ;
#210 = AXIS2_PLACEMENT_3D ( 'NONE', #117, #97, #208 ) ;
#211 = APPROVAL_STATUS ( 'not_yet_approved' ) ;
#212 = PERSON_AND_ORGANIZATION ( #217, #204 ) ;
#213 = EDGE_LOOP ( 'NONE', ( #215, #40, #25, #12 ) ) ;
#214 = AXIS2_PLACEMENT_3D ( 'NONE', #248, #148, #199 ) ;
#215 = ORIENTED_EDGE ( 'NONE', *, *, #102, .F. ) ;
#216 = EDGE_LOOP ( 'NONE', ( #146, #126 ) ) ;
#217 = PERSON ( 'NEURÈENÝ', 'NEURÈENÝ', 'NEURÈENÝ', ('NEURÈENÝ'), ('NEURÈENÝ'), ('NEURÈENÝ') ) ;
#218 = EDGE_LOOP ( 'NONE', ( #236, #26, #171, #45 ) ) ;
#219 = CARTESIAN_POINT ( 'NONE',  ( -0.5000000000000000000, 0.000000000000000000, 100.0000000000000000 ) ) ;
#220 = APPLICATION_CONTEXT ( 'configuration controlled 3d designs of mechanical parts and assemblies' ) ;
#221 = DIRECTION ( 'NONE',  ( -0.000000000000000000, -0.000000000000000000, -1.000000000000000000 ) ) ;
#222 = CARTESIAN_POINT ( 'NONE',  ( -0.5000000000000000000, 0.000000000000000000, 1.199999999999999956 ) ) ;
#223 = CARTESIAN_POINT ( 'NONE',  ( 0.000000000000000000, 0.000000000000000000, 1.199999999999999956 ) ) ;
#224 = CC_DESIGN_SECURITY_CLASSIFICATION ( #127, ( #104 ) ) ;
#225 = CYLINDRICAL_SURFACE ( 'NONE', #112, 1.250000000000000000 ) ;
#226 = DIRECTION ( 'NONE',  ( -1.000000000000000000, 0.000000000000000000, 0.000000000000000000 ) ) ;
#227 = CARTESIAN_POINT ( 'NONE',  ( -1.250000000000000000, 0.000000000000000000, 1.199999999999999956 ) ) ;
#228 = APPROVAL_STATUS ( 'not_yet_approved' ) ;
#229 = CARTESIAN_POINT ( 'NONE',  ( 0.000000000000000000, 0.000000000000000000, 100.0000000000000000 ) ) ;
#230 = PERSON_AND_ORGANIZATION_ROLE ( 'classification_officer' ) ;
#231 = ORIENTED_EDGE ( 'NONE', *, *, #29, .F. ) ;
#232 = ADVANCED_FACE ( 'NONE', ( #31 ), #30, .T. ) ;
#233 = VERTEX_POINT ( 'NONE', #222 ) ;
#234 = PLANE ( 'NONE',  #158 ) ;
#235 = AXIS2_PLACEMENT_3D ( 'NONE', #205, #68, #73 ) ;
#236 = ORIENTED_EDGE ( 'NONE', *, *, #251, .F. ) ;
#237 = DIRECTION ( 'NONE',  ( 1.000000000000000000, 0.000000000000000000, 0.000000000000000000 ) ) ;
#238 = CARTESIAN_POINT ( 'NONE',  ( 1.250000000000000000, 1.530808498934191571E-16, 0.000000000000000000 ) ) ;
#239 = DIRECTION ( 'NONE',  ( -0.000000000000000000, -0.000000000000000000, -1.000000000000000000 ) ) ;
#240 = APPLICATION_PROTOCOL_DEFINITION ( 'international standard', 'config_control_design', 1994, #220 ) ;
#241 = APPLICATION_PROTOCOL_DEFINITION ( 'international standard', 'config_control_design', 1994, #33 ) ;
#242 = ADVANCED_FACE ( 'NONE', ( #94 ), #225, .T. ) ;
#243 = CALENDAR_DATE ( 2023, 31, 1 ) ;
#244 = CC_DESIGN_PERSON_AND_ORGANIZATION_ASSIGNMENT ( #212, #230, ( #127 ) ) ;
#245 = CIRCLE ( 'NONE', #67, 1.250000000000000000 ) ;
#246 = APPROVAL_ROLE ( '' ) ;
#247 = VERTEX_POINT ( 'NONE', #238 ) ;
#248 = CARTESIAN_POINT ( 'NONE',  ( 0.000000000000000000, 0.000000000000000000, 100.0000000000000000 ) ) ;
#249 = CIRCLE ( 'NONE', #235, 0.5000000000000000000 ) ;
#250 = EDGE_CURVE ( 'NONE', #150, #105, #134, .T. ) ;
#251 = EDGE_CURVE ( 'NONE', #139, #247, #35, .T. ) ;
#252 = VERTEX_POINT ( 'NONE', #135 ) ;
#253 = VECTOR ( 'NONE', #109, 1000.000000000000000 ) ;
#254 = ORIENTED_EDGE ( 'NONE', *, *, #75, .F. ) ;
#255 = ORIENTED_EDGE ( 'NONE', *, *, #36, .F. ) ;
ENDSEC;
END-ISO-10303-21;
