ISO-10303-21;
HEADER;
FILE_DESCRIPTION (( 'STEP AP203' ),
    '1' );
FILE_NAME ('8710.STEP',
    '2023-02-13T11:12:12',
    ( '' ),
    ( '' ),
    'SwSTEP 2.0',
    'SolidWorks 2019',
    '' );
FILE_SCHEMA (( 'CONFIG_CONTROL_DESIGN' ));
ENDSEC;

DATA;
#1 = APPROVAL_PERSON_ORGANIZATION ( #86, #169, #99 ) ;
#2 = PERSON_AND_ORGANIZATION ( #226, #227 ) ;
#3 = ORIENTED_EDGE ( 'NONE', *, *, #207, .T. ) ;
#4 = DIRECTION ( 'NONE',  ( 0.000000000000000000, 0.000000000000000000, 1.000000000000000000 ) ) ;
#5 = ORIENTED_EDGE ( 'NONE', *, *, #222, .T. ) ;
#6 = CLOSED_SHELL ( 'NONE', ( #178, #216, #123, #40, #128, #74, #186 ) ) ;
#7 = CALENDAR_DATE ( 2023, 13, 2 ) ;
#8 = DIRECTION ( 'NONE',  ( 0.000000000000000000, 0.000000000000000000, 1.000000000000000000 ) ) ;
#9 = DATE_AND_TIME ( #124, #119 ) ;
#10 = FACE_OUTER_BOUND ( 'NONE', #117, .T. ) ;
#11 = CARTESIAN_POINT ( 'NONE',  ( 0.000000000000000000, 0.000000000000000000, 200.0000000000000000 ) ) ;
#12 = FACE_OUTER_BOUND ( 'NONE', #23, .T. ) ;
#13 = VECTOR ( 'NONE', #171, 1000.000000000000000 ) ;
#14 = CARTESIAN_POINT ( 'NONE',  ( 8.000000000000000000, 9.797174393178825657E-16, 5.000000000000000000 ) ) ;
#15 = DIRECTION ( 'NONE',  ( -0.000000000000000000, -0.000000000000000000, -1.000000000000000000 ) ) ;
#16 = DIRECTION ( 'NONE',  ( 1.000000000000000000, 0.000000000000000000, -0.000000000000000000 ) ) ;
#17 = AXIS2_PLACEMENT_3D ( 'NONE', #11, #8, #244 ) ;
#18 =( NAMED_UNIT ( * ) PLANE_ANGLE_UNIT ( ) SI_UNIT ( $, .RADIAN. ) );
#19 = APPROVAL_STATUS ( 'not_yet_approved' ) ;
#20 = VERTEX_POINT ( 'NONE', #42 ) ;
#21 = MANIFOLD_SOLID_BREP ( 'Pøidat vysunutím3', #6 ) ;
#22 = CALENDAR_DATE ( 2023, 13, 2 ) ;
#23 = EDGE_LOOP ( 'NONE', ( #241, #97, #45, #58 ) ) ;
#24 = MECHANICAL_CONTEXT ( 'NONE', #141, 'mechanical' ) ;
#25 = CIRCLE ( 'NONE', #105, 8.000000000000000000 ) ;
#26 = PRODUCT_DEFINITION ( 'NEZNÁMÝ', '', #85, #109 ) ;
#27 = DATE_AND_TIME ( #7, #62 ) ;
#28 = ORIENTED_EDGE ( 'NONE', *, *, #82, .F. ) ;
#29 = PLANE ( 'NONE',  #110 ) ;
#30 = CC_DESIGN_PERSON_AND_ORGANIZATION_ASSIGNMENT ( #115, #44, ( #249 ) ) ;
#31 = APPROVAL ( #79, 'NEURÈENÝ' ) ;
#32 = COORDINATED_UNIVERSAL_TIME_OFFSET ( 1, 0, .AHEAD. ) ;
#33 = CC_DESIGN_APPROVAL ( #31, ( #85 ) ) ;
#34 = DIRECTION ( 'NONE',  ( 1.000000000000000000, 0.000000000000000000, 0.000000000000000000 ) ) ;
#35 = DIRECTION ( 'NONE',  ( -0.000000000000000000, -0.000000000000000000, -1.000000000000000000 ) ) ;
#36 = FACE_OUTER_BOUND ( 'NONE', #94, .T. ) ;
#37 = CARTESIAN_POINT ( 'NONE',  ( 0.000000000000000000, 0.000000000000000000, 0.000000000000000000 ) ) ;
#38 = VECTOR ( 'NONE', #236, 1000.000000000000000 ) ;
#39 = DIRECTION ( 'NONE',  ( 1.000000000000000000, 0.000000000000000000, 0.000000000000000000 ) ) ;
#40 = ADVANCED_FACE ( 'NONE', ( #78, #10 ), #29, .T. ) ;
#41 = DIRECTION ( 'NONE',  ( -0.000000000000000000, -0.000000000000000000, -1.000000000000000000 ) ) ;
#42 = CARTESIAN_POINT ( 'NONE',  ( -8.000000000000000000, 0.000000000000000000, 0.000000000000000000 ) ) ;
#43 = EDGE_LOOP ( 'NONE', ( #49, #80 ) ) ;
#44 = PERSON_AND_ORGANIZATION_ROLE ( 'design_owner' ) ;
#45 = ORIENTED_EDGE ( 'NONE', *, *, #83, .T. ) ;
#46 = AXIS2_PLACEMENT_3D ( 'NONE', #65, #146, #145 ) ;
#47 = CARTESIAN_POINT ( 'NONE',  ( 0.000000000000000000, 0.000000000000000000, 0.000000000000000000 ) ) ;
#48 = CC_DESIGN_SECURITY_CLASSIFICATION ( #176, ( #85 ) ) ;
#49 = ORIENTED_EDGE ( 'NONE', *, *, #160, .F. ) ;
#50 = AXIS2_PLACEMENT_3D ( 'NONE', #108, #68, #39 ) ;
#51 = CARTESIAN_POINT ( 'NONE',  ( -5.250000000000000888, 0.000000000000000000, 200.0000000000000000 ) ) ;
#52 = DIRECTION ( 'NONE',  ( 0.000000000000000000, 0.000000000000000000, 1.000000000000000000 ) ) ;
#53 = CIRCLE ( 'NONE', #17, 5.250000000000000888 ) ;
#54 = CARTESIAN_POINT ( 'NONE',  ( 0.000000000000000000, 0.000000000000000000, 200.0000000000000000 ) ) ;
#55 = APPROVAL_PERSON_ORGANIZATION ( #179, #126, #180 ) ;
#56 = DIRECTION ( 'NONE',  ( 0.000000000000000000, 0.000000000000000000, 1.000000000000000000 ) ) ;
#57 = DIRECTION ( 'NONE',  ( 1.000000000000000000, 0.000000000000000000, 0.000000000000000000 ) ) ;
#58 = ORIENTED_EDGE ( 'NONE', *, *, #155, .F. ) ;
#59 = AXIS2_PLACEMENT_3D ( 'NONE', #195, #56, #114 ) ;
#60 = ORIENTED_EDGE ( 'NONE', *, *, #167, .T. ) ;
#61 =( NAMED_UNIT ( * ) SI_UNIT ( $, .STERADIAN. ) SOLID_ANGLE_UNIT ( ) );
#62 = LOCAL_TIME ( 12, 12, 12.00000000000000000, #101 ) ;
#63 = EDGE_CURVE ( 'NONE', #201, #237, #69, .T. ) ;
#64 = COORDINATED_UNIVERSAL_TIME_OFFSET ( 1, 0, .AHEAD. ) ;
#65 = CARTESIAN_POINT ( 'NONE',  ( 0.000000000000000000, 0.000000000000000000, 0.000000000000000000 ) ) ;
#66 = AXIS2_PLACEMENT_3D ( 'NONE', #54, #52, #127 ) ;
#67 = PERSON_AND_ORGANIZATION ( #226, #227 ) ;
#68 = DIRECTION ( 'NONE',  ( 0.000000000000000000, 0.000000000000000000, 1.000000000000000000 ) ) ;
#69 = CIRCLE ( 'NONE', #166, 8.000000000000000000 ) ;
#70 = LINE ( 'NONE', #232, #131 ) ;
#71 = ADVANCED_BREP_SHAPE_REPRESENTATION ( '8710', ( #21, #168 ), #213 ) ;
#72 = DIRECTION ( 'NONE',  ( 1.000000000000000000, 0.000000000000000000, 0.000000000000000000 ) ) ;
#73 = CC_DESIGN_DATE_AND_TIME_ASSIGNMENT ( #223, #229, ( #26 ) ) ;
#74 = ADVANCED_FACE ( 'NONE', ( #225 ), #125, .T. ) ;
#75 = CARTESIAN_POINT ( 'NONE',  ( 5.250000000000000888, 6.429395695523605139E-16, 200.0000000000000000 ) ) ;
#76 = ORIENTED_EDGE ( 'NONE', *, *, #196, .T. ) ;
#77 = CIRCLE ( 'NONE', #66, 5.250000000000000888 ) ;
#78 = FACE_BOUND ( 'NONE', #43, .T. ) ;
#79 = APPROVAL_STATUS ( 'not_yet_approved' ) ;
#80 = ORIENTED_EDGE ( 'NONE', *, *, #196, .F. ) ;
#81 = CC_DESIGN_PERSON_AND_ORGANIZATION_ASSIGNMENT ( #2, #158, ( #26 ) ) ;
#82 = EDGE_CURVE ( 'NONE', #221, #198, #53, .T. ) ;
#83 = EDGE_CURVE ( 'NONE', #238, #20, #234, .T. ) ;
#84 = SECURITY_CLASSIFICATION_LEVEL ( 'unclassified' ) ;
#85 = PRODUCT_DEFINITION_FORMATION_WITH_SPECIFIED_SOURCE ( 'LIBOVOLNÝ', '', #249, .NOT_KNOWN. ) ;
#86 = PERSON_AND_ORGANIZATION ( #226, #227 ) ;
#87 = DIRECTION ( 'NONE',  ( 1.000000000000000000, 0.000000000000000000, -0.000000000000000000 ) ) ;
#88 = AXIS2_PLACEMENT_3D ( 'NONE', #194, #214, #91 ) ;
#89 = CARTESIAN_POINT ( 'NONE',  ( 0.000000000000000000, 0.000000000000000000, 5.000000000000000000 ) ) ;
#90 = DIRECTION ( 'NONE',  ( -0.000000000000000000, -0.000000000000000000, -1.000000000000000000 ) ) ;
#91 = DIRECTION ( 'NONE',  ( -1.000000000000000000, 0.000000000000000000, 0.000000000000000000 ) ) ;
#92 = ORIENTED_EDGE ( 'NONE', *, *, #143, .T. ) ;
#93 = DATE_AND_TIME ( #22, #209 ) ;
#94 = EDGE_LOOP ( 'NONE', ( #28, #5, #76, #120 ) ) ;
#95 = ORIENTED_EDGE ( 'NONE', *, *, #160, .T. ) ;
#96 = PRODUCT_DEFINITION_SHAPE ( 'NONE', 'NONE',  #26 ) ;
#97 = ORIENTED_EDGE ( 'NONE', *, *, #228, .T. ) ;
#98 = PRODUCT_RELATED_PRODUCT_CATEGORY ( 'detail', '', ( #249 ) ) ;
#99 = APPROVAL_ROLE ( '' ) ;
#100 = ORIENTED_EDGE ( 'NONE', *, *, #155, .T. ) ;
#101 = COORDINATED_UNIVERSAL_TIME_OFFSET ( 1, 0, .AHEAD. ) ;
#102 = DIRECTION ( 'NONE',  ( 0.000000000000000000, 0.000000000000000000, 1.000000000000000000 ) ) ;
#103 = PERSON_AND_ORGANIZATION_ROLE ( 'design_supplier' ) ;
#104 = PERSON_AND_ORGANIZATION_ROLE ( 'classification_officer' ) ;
#105 = AXIS2_PLACEMENT_3D ( 'NONE', #231, #211, #72 ) ;
#106 = DIRECTION ( 'NONE',  ( -0.000000000000000000, -0.000000000000000000, -1.000000000000000000 ) ) ;
#107 = DIRECTION ( 'NONE',  ( 0.000000000000000000, 0.000000000000000000, 1.000000000000000000 ) ) ;
#108 = CARTESIAN_POINT ( 'NONE',  ( 0.000000000000000000, 0.000000000000000000, 5.000000000000000000 ) ) ;
#109 = DESIGN_CONTEXT ( 'detailed design', #121, 'design' ) ;
#110 = AXIS2_PLACEMENT_3D ( 'NONE', #170, #102, #242 ) ;
#111 = CC_DESIGN_APPROVAL ( #126, ( #26 ) ) ;
#112 = DIRECTION ( 'NONE',  ( 0.000000000000000000, 0.000000000000000000, 1.000000000000000000 ) ) ;
#113 = CARTESIAN_POINT ( 'NONE',  ( -8.000000000000000000, 0.000000000000000000, 5.000000000000000000 ) ) ;
#114 = DIRECTION ( 'NONE',  ( 1.000000000000000000, 0.000000000000000000, 0.000000000000000000 ) ) ;
#115 = PERSON_AND_ORGANIZATION ( #226, #227 ) ;
#116 = VERTEX_POINT ( 'NONE', #217 ) ;
#117 = EDGE_LOOP ( 'NONE', ( #200, #60 ) ) ;
#118 = ORIENTED_EDGE ( 'NONE', *, *, #63, .F. ) ;
#119 = LOCAL_TIME ( 12, 12, 12.00000000000000000, #32 ) ;
#120 = ORIENTED_EDGE ( 'NONE', *, *, #224, .F. ) ;
#121 = APPLICATION_CONTEXT ( 'configuration controlled 3d designs of mechanical parts and assemblies' ) ;
#122 = PERSON_AND_ORGANIZATION ( #226, #227 ) ;
#123 = ADVANCED_FACE ( 'NONE', ( #130 ), #212, .T. ) ;
#124 = CALENDAR_DATE ( 2023, 13, 2 ) ;
#125 = CYLINDRICAL_SURFACE ( 'NONE', #219, 5.250000000000000888 ) ;
#126 = APPROVAL ( #19, 'NEURÈENÝ' ) ;
#127 = DIRECTION ( 'NONE',  ( 1.000000000000000000, 0.000000000000000000, 0.000000000000000000 ) ) ;
#128 = ADVANCED_FACE ( 'NONE', ( #252 ), #152, .F. ) ;
#129 = DIRECTION ( 'NONE',  ( -1.000000000000000000, 0.000000000000000000, 0.000000000000000000 ) ) ;
#130 = FACE_OUTER_BOUND ( 'NONE', #255, .T. ) ;
#131 = VECTOR ( 'NONE', #15, 1000.000000000000000 ) ;
#132 = CARTESIAN_POINT ( 'NONE',  ( 0.000000000000000000, 0.000000000000000000, 5.000000000000000000 ) ) ;
#133 = PLANE ( 'NONE',  #206 ) ;
#134 = LOCAL_TIME ( 12, 12, 12.00000000000000000, #144 ) ;
#135 = VERTEX_POINT ( 'NONE', #250 ) ;
#136 = ORIENTED_EDGE ( 'NONE', *, *, #222, .F. ) ;
#137 = CIRCLE ( 'NONE', #50, 5.250000000000000888 ) ;
#138 = CIRCLE ( 'NONE', #254, 5.250000000000000888 ) ;
#139 = ORIENTED_EDGE ( 'NONE', *, *, #224, .T. ) ;
#140 = CC_DESIGN_DATE_AND_TIME_ASSIGNMENT ( #27, #185, ( #176 ) ) ;
#141 = APPLICATION_CONTEXT ( 'configuration controlled 3d designs of mechanical parts and assemblies' ) ;
#142 = APPROVAL_STATUS ( 'not_yet_approved' ) ;
#143 = EDGE_CURVE ( 'NONE', #20, #238, #25, .T. ) ;
#144 = COORDINATED_UNIVERSAL_TIME_OFFSET ( 1, 0, .AHEAD. ) ;
#145 = DIRECTION ( 'NONE',  ( 1.000000000000000000, 0.000000000000000000, 0.000000000000000000 ) ) ;
#146 = DIRECTION ( 'NONE',  ( 0.000000000000000000, 0.000000000000000000, 1.000000000000000000 ) ) ;
#147 = DIRECTION ( 'NONE',  ( 0.000000000000000000, 0.000000000000000000, 1.000000000000000000 ) ) ;
#148 = DIRECTION ( 'NONE',  ( -1.000000000000000000, 0.000000000000000000, 0.000000000000000000 ) ) ;
#149 = AXIS2_PLACEMENT_3D ( 'NONE', #193, #90, #148 ) ;
#150 = FACE_OUTER_BOUND ( 'NONE', #181, .T. ) ;
#151 = DIRECTION ( 'NONE',  ( 1.000000000000000000, 0.000000000000000000, 0.000000000000000000 ) ) ;
#152 = PLANE ( 'NONE',  #190 ) ;
#153 = CARTESIAN_POINT ( 'NONE',  ( -5.250000000000000888, 0.000000000000000000, 200.0000000000000000 ) ) ;
#154 = COORDINATED_UNIVERSAL_TIME_OFFSET ( 1, 0, .AHEAD. ) ;
#155 = EDGE_CURVE ( 'NONE', #201, #20, #175, .T. ) ;
#156 = ORIENTED_EDGE ( 'NONE', *, *, #82, .T. ) ;
#157 = APPROVAL_DATE_TIME ( #93, #126 ) ;
#158 = PERSON_AND_ORGANIZATION_ROLE ( 'creator' ) ;
#159 = EDGE_LOOP ( 'NONE', ( #136, #220, #139, #95 ) ) ;
#160 = EDGE_CURVE ( 'NONE', #135, #116, #137, .T. ) ;
#161 = ORIENTED_EDGE ( 'NONE', *, *, #228, .F. ) ;
#162 = PERSON_AND_ORGANIZATION ( #226, #227 ) ;
#163 = CARTESIAN_POINT ( 'NONE',  ( 0.000000000000000000, 0.000000000000000000, 5.000000000000000000 ) ) ;
#164 = CALENDAR_DATE ( 2023, 13, 2 ) ;
#165 = UNCERTAINTY_MEASURE_WITH_UNIT (LENGTH_MEASURE( 1.000000000000000082E-05 ), #218, 'distance_accuracy_value', 'NONE');
#166 = AXIS2_PLACEMENT_3D ( 'NONE', #163, #147, #34 ) ;
#167 = EDGE_CURVE ( 'NONE', #237, #201, #184, .T. ) ;
#168 = AXIS2_PLACEMENT_3D ( 'NONE', #47, #4, #57 ) ;
#169 = APPROVAL ( #142, 'NEURÈENÝ' ) ;
#170 = CARTESIAN_POINT ( 'NONE',  ( 0.000000000000000000, 0.000000000000000000, 5.000000000000000000 ) ) ;
#171 = DIRECTION ( 'NONE',  ( -0.000000000000000000, -0.000000000000000000, -1.000000000000000000 ) ) ;
#172 = LINE ( 'NONE', #153, #38 ) ;
#173 = CC_DESIGN_APPROVAL ( #169, ( #176 ) ) ;
#174 = CARTESIAN_POINT ( 'NONE',  ( 8.000000000000000000, 9.797174393178825657E-16, 0.000000000000000000 ) ) ;
#175 = LINE ( 'NONE', #113, #13 ) ;
#176 = SECURITY_CLASSIFICATION ( '', '', #84 ) ;
#177 = APPLICATION_PROTOCOL_DEFINITION ( 'international standard', 'config_control_design', 1994, #141 ) ;
#178 = ADVANCED_FACE ( 'NONE', ( #36 ), #197, .T. ) ;
#179 = PERSON_AND_ORGANIZATION ( #226, #227 ) ;
#180 = APPROVAL_ROLE ( '' ) ;
#181 = EDGE_LOOP ( 'NONE', ( #3, #156 ) ) ;
#182 = ORIENTED_EDGE ( 'NONE', *, *, #83, .F. ) ;
#183 = SHAPE_DEFINITION_REPRESENTATION ( #96, #71 ) ;
#184 = CIRCLE ( 'NONE', #59, 8.000000000000000000 ) ;
#185 = DATE_TIME_ROLE ( 'classification_date' ) ;
#186 = ADVANCED_FACE ( 'NONE', ( #150 ), #133, .T. ) ;
#187 = PERSON_AND_ORGANIZATION ( #226, #227 ) ;
#188 = CC_DESIGN_PERSON_AND_ORGANIZATION_ASSIGNMENT ( #187, #230, ( #85 ) ) ;
#189 = CARTESIAN_POINT ( 'NONE',  ( 0.000000000000000000, 0.000000000000000000, 200.0000000000000000 ) ) ;
#190 = AXIS2_PLACEMENT_3D ( 'NONE', #37, #192, #87 ) ;
#191 = DIRECTION ( 'NONE',  ( -1.000000000000000000, 0.000000000000000000, 0.000000000000000000 ) ) ;
#192 = DIRECTION ( 'NONE',  ( 0.000000000000000000, 0.000000000000000000, 1.000000000000000000 ) ) ;
#193 = CARTESIAN_POINT ( 'NONE',  ( 0.000000000000000000, 0.000000000000000000, 200.0000000000000000 ) ) ;
#194 = CARTESIAN_POINT ( 'NONE',  ( 0.000000000000000000, 0.000000000000000000, 5.000000000000000000 ) ) ;
#195 = CARTESIAN_POINT ( 'NONE',  ( 0.000000000000000000, 0.000000000000000000, 5.000000000000000000 ) ) ;
#196 = EDGE_CURVE ( 'NONE', #116, #135, #138, .T. ) ;
#197 = CYLINDRICAL_SURFACE ( 'NONE', #149, 5.250000000000000888 ) ;
#198 = VERTEX_POINT ( 'NONE', #51 ) ;
#199 = APPLICATION_PROTOCOL_DEFINITION ( 'international standard', 'config_control_design', 1994, #121 ) ;
#200 = ORIENTED_EDGE ( 'NONE', *, *, #63, .T. ) ;
#201 = VERTEX_POINT ( 'NONE', #235 ) ;
#202 = LOCAL_TIME ( 12, 12, 12.00000000000000000, #64 ) ;
#203 = ORIENTED_EDGE ( 'NONE', *, *, #143, .F. ) ;
#204 = APPROVAL_DATE_TIME ( #9, #169 ) ;
#205 = EDGE_LOOP ( 'NONE', ( #203, #182 ) ) ;
#206 = AXIS2_PLACEMENT_3D ( 'NONE', #253, #107, #16 ) ;
#207 = EDGE_CURVE ( 'NONE', #198, #221, #77, .T. ) ;
#208 = APPROVAL_DATE_TIME ( #248, #31 ) ;
#209 = LOCAL_TIME ( 12, 12, 12.00000000000000000, #154 ) ;
#210 = LINE ( 'NONE', #251, #247 ) ;
#211 = DIRECTION ( 'NONE',  ( 0.000000000000000000, 0.000000000000000000, 1.000000000000000000 ) ) ;
#212 = CYLINDRICAL_SURFACE ( 'NONE', #245, 8.000000000000000000 ) ;
#213 =( GEOMETRIC_REPRESENTATION_CONTEXT ( 3 ) GLOBAL_UNCERTAINTY_ASSIGNED_CONTEXT ( ( #165 ) ) GLOBAL_UNIT_ASSIGNED_CONTEXT ( ( #218, #18, #61 ) ) REPRESENTATION_CONTEXT ( 'NONE', 'WORKASPACE' ) );
#214 = DIRECTION ( 'NONE',  ( -0.000000000000000000, -0.000000000000000000, -1.000000000000000000 ) ) ;
#215 = CC_DESIGN_PERSON_AND_ORGANIZATION_ASSIGNMENT ( #122, #103, ( #85 ) ) ;
#216 = ADVANCED_FACE ( 'NONE', ( #12 ), #233, .T. ) ;
#217 = CARTESIAN_POINT ( 'NONE',  ( 5.250000000000000888, 6.429395695523605139E-16, 5.000000000000000000 ) ) ;
#218 =( LENGTH_UNIT ( ) NAMED_UNIT ( * ) SI_UNIT ( .MILLI., .METRE. ) );
#219 = AXIS2_PLACEMENT_3D ( 'NONE', #189, #106, #191 ) ;
#220 = ORIENTED_EDGE ( 'NONE', *, *, #207, .F. ) ;
#221 = VERTEX_POINT ( 'NONE', #75 ) ;
#222 = EDGE_CURVE ( 'NONE', #221, #116, #210, .T. ) ;
#223 = DATE_AND_TIME ( #164, #202 ) ;
#224 = EDGE_CURVE ( 'NONE', #198, #135, #172, .T. ) ;
#225 = FACE_OUTER_BOUND ( 'NONE', #159, .T. ) ;
#226 = PERSON ( 'NEURÈENÝ', 'NEURÈENÝ', 'NEURÈENÝ', ('NEURÈENÝ'), ('NEURÈENÝ'), ('NEURÈENÝ') ) ;
#227 = ORGANIZATION ( 'NEURÈENÝ', 'NEURÈENÝ', '' ) ;
#228 = EDGE_CURVE ( 'NONE', #237, #238, #70, .T. ) ;
#229 = DATE_TIME_ROLE ( 'creation_date' ) ;
#230 = PERSON_AND_ORGANIZATION_ROLE ( 'creator' ) ;
#231 = CARTESIAN_POINT ( 'NONE',  ( 0.000000000000000000, 0.000000000000000000, 0.000000000000000000 ) ) ;
#232 = CARTESIAN_POINT ( 'NONE',  ( 8.000000000000000000, 9.797174393178825657E-16, 5.000000000000000000 ) ) ;
#233 = CYLINDRICAL_SURFACE ( 'NONE', #88, 8.000000000000000000 ) ;
#234 = CIRCLE ( 'NONE', #46, 8.000000000000000000 ) ;
#235 = CARTESIAN_POINT ( 'NONE',  ( -8.000000000000000000, 0.000000000000000000, 5.000000000000000000 ) ) ;
#236 = DIRECTION ( 'NONE',  ( -0.000000000000000000, -0.000000000000000000, -1.000000000000000000 ) ) ;
#237 = VERTEX_POINT ( 'NONE', #14 ) ;
#238 = VERTEX_POINT ( 'NONE', #174 ) ;
#239 = APPROVAL_PERSON_ORGANIZATION ( #162, #31, #243 ) ;
#240 = CC_DESIGN_PERSON_AND_ORGANIZATION_ASSIGNMENT ( #67, #104, ( #176 ) ) ;
#241 = ORIENTED_EDGE ( 'NONE', *, *, #167, .F. ) ;
#242 = DIRECTION ( 'NONE',  ( 1.000000000000000000, 0.000000000000000000, -0.000000000000000000 ) ) ;
#243 = APPROVAL_ROLE ( '' ) ;
#244 = DIRECTION ( 'NONE',  ( 1.000000000000000000, 0.000000000000000000, 0.000000000000000000 ) ) ;
#245 = AXIS2_PLACEMENT_3D ( 'NONE', #89, #41, #129 ) ;
#246 = CALENDAR_DATE ( 2023, 13, 2 ) ;
#247 = VECTOR ( 'NONE', #35, 1000.000000000000000 ) ;
#248 = DATE_AND_TIME ( #246, #134 ) ;
#249 = PRODUCT ( '8710', '8710', '', ( #24 ) ) ;
#250 = CARTESIAN_POINT ( 'NONE',  ( -5.250000000000000888, 0.000000000000000000, 5.000000000000000000 ) ) ;
#251 = CARTESIAN_POINT ( 'NONE',  ( 5.250000000000000888, 6.429395695523605139E-16, 200.0000000000000000 ) ) ;
#252 = FACE_OUTER_BOUND ( 'NONE', #205, .T. ) ;
#253 = CARTESIAN_POINT ( 'NONE',  ( 0.000000000000000000, 0.000000000000000000, 200.0000000000000000 ) ) ;
#254 = AXIS2_PLACEMENT_3D ( 'NONE', #132, #112, #151 ) ;
#255 = EDGE_LOOP ( 'NONE', ( #161, #118, #100, #92 ) ) ;
ENDSEC;
END-ISO-10303-21;
