ISO-10303-21;
HEADER;
FILE_DESCRIPTION (( 'STEP AP203' ),
    '1' );
FILE_NAME ('f50b.STEP',
    '2023-02-13T09:21:24',
    ( '' ),
    ( '' ),
    'SwSTEP 2.0',
    'SolidWorks 2019',
    '' );
FILE_SCHEMA (( 'CONFIG_CONTROL_DESIGN' ));
ENDSEC;

DATA;
#1 = APPROVAL ( #17, 'NEURÈENÝ' ) ;
#2 = CARTESIAN_POINT ( 'NONE',  ( -8.000000000000000000, 0.000000000000000000, 160.0000000000000000 ) ) ;
#3 = CARTESIAN_POINT ( 'NONE',  ( -11.00000000000000000, 0.000000000000000000, 7.000000000000000000 ) ) ;
#4 = EDGE_CURVE ( 'NONE', #37, #199, #128, .T. ) ;
#5 = PRODUCT_RELATED_PRODUCT_CATEGORY ( 'detail', '', ( #145 ) ) ;
#6 = CARTESIAN_POINT ( 'NONE',  ( 11.00000000000000000, 1.347111479062088405E-15, 7.000000000000000000 ) ) ;
#7 = PERSON_AND_ORGANIZATION ( #213, #69 ) ;
#8 = CALENDAR_DATE ( 2023, 13, 2 ) ;
#9 = COORDINATED_UNIVERSAL_TIME_OFFSET ( 1, 0, .AHEAD. ) ;
#10 = AXIS2_PLACEMENT_3D ( 'NONE', #125, #156, #176 ) ;
#11 = CIRCLE ( 'NONE', #106, 8.000000000000000000 ) ;
#12 = FACE_OUTER_BOUND ( 'NONE', #208, .T. ) ;
#13 = DIRECTION ( 'NONE',  ( 0.000000000000000000, 0.000000000000000000, 1.000000000000000000 ) ) ;
#14 = DIRECTION ( 'NONE',  ( -0.000000000000000000, -0.000000000000000000, -1.000000000000000000 ) ) ;
#15 = APPLICATION_CONTEXT ( 'configuration controlled 3d designs of mechanical parts and assemblies' ) ;
#16 = VERTEX_POINT ( 'NONE', #120 ) ;
#17 = APPROVAL_STATUS ( 'not_yet_approved' ) ;
#18 = AXIS2_PLACEMENT_3D ( 'NONE', #195, #108, #136 ) ;
#19 = CYLINDRICAL_SURFACE ( 'NONE', #18, 8.000000000000000000 ) ;
#20 = ORIENTED_EDGE ( 'NONE', *, *, #72, .T. ) ;
#21 = ORIENTED_EDGE ( 'NONE', *, *, #99, .T. ) ;
#22 =( GEOMETRIC_REPRESENTATION_CONTEXT ( 3 ) GLOBAL_UNCERTAINTY_ASSIGNED_CONTEXT ( ( #53 ) ) GLOBAL_UNIT_ASSIGNED_CONTEXT ( ( #160, #158, #212 ) ) REPRESENTATION_CONTEXT ( 'NONE', 'WORKASPACE' ) );
#23 = LINE ( 'NONE', #103, #54 ) ;
#24 = CALENDAR_DATE ( 2023, 13, 2 ) ;
#25 = EDGE_CURVE ( 'NONE', #37, #93, #23, .T. ) ;
#26 = CARTESIAN_POINT ( 'NONE',  ( 0.000000000000000000, 0.000000000000000000, 7.000000000000000000 ) ) ;
#27 = APPROVAL_DATE_TIME ( #243, #217 ) ;
#28 = ADVANCED_BREP_SHAPE_REPRESENTATION ( 'f50b', ( #118, #29 ), #22 ) ;
#29 = AXIS2_PLACEMENT_3D ( 'NONE', #248, #13, #231 ) ;
#30 = APPROVAL_ROLE ( '' ) ;
#31 = ADVANCED_FACE ( 'NONE', ( #210 ), #62, .T. ) ;
#32 = APPLICATION_PROTOCOL_DEFINITION ( 'international standard', 'config_control_design', 1994, #105 ) ;
#33 = VERTEX_POINT ( 'NONE', #157 ) ;
#34 = ORIENTED_EDGE ( 'NONE', *, *, #47, .F. ) ;
#35 = ORIENTED_EDGE ( 'NONE', *, *, #121, .T. ) ;
#36 = LOCAL_TIME ( 10, 21, 24.00000000000000000, #185 ) ;
#37 = VERTEX_POINT ( 'NONE', #6 ) ;
#38 = ORIENTED_EDGE ( 'NONE', *, *, #107, .T. ) ;
#39 = DIRECTION ( 'NONE',  ( 0.000000000000000000, 0.000000000000000000, 1.000000000000000000 ) ) ;
#40 = CYLINDRICAL_SURFACE ( 'NONE', #109, 11.00000000000000000 ) ;
#41 = FACE_OUTER_BOUND ( 'NONE', #253, .T. ) ;
#42 = DIRECTION ( 'NONE',  ( 1.000000000000000000, 0.000000000000000000, -0.000000000000000000 ) ) ;
#43 = ADVANCED_FACE ( 'NONE', ( #80 ), #238, .T. ) ;
#44 = COORDINATED_UNIVERSAL_TIME_OFFSET ( 1, 0, .AHEAD. ) ;
#45 = APPROVAL_DATE_TIME ( #164, #1 ) ;
#46 = APPROVAL_PERSON_ORGANIZATION ( #122, #68, #225 ) ;
#47 = EDGE_CURVE ( 'NONE', #199, #33, #181, .T. ) ;
#48 = EDGE_LOOP ( 'NONE', ( #227, #119, #35, #34 ) ) ;
#49 = CIRCLE ( 'NONE', #149, 8.000000000000000000 ) ;
#50 = DIRECTION ( 'NONE',  ( 1.000000000000000000, 0.000000000000000000, 0.000000000000000000 ) ) ;
#51 = PERSON_AND_ORGANIZATION_ROLE ( 'design_owner' ) ;
#52 = DIRECTION ( 'NONE',  ( 1.000000000000000000, 0.000000000000000000, 0.000000000000000000 ) ) ;
#53 = UNCERTAINTY_MEASURE_WITH_UNIT (LENGTH_MEASURE( 1.000000000000000082E-05 ), #160, 'distance_accuracy_value', 'NONE');
#54 = VECTOR ( 'NONE', #124, 1000.000000000000000 ) ;
#55 = CIRCLE ( 'NONE', #102, 11.00000000000000000 ) ;
#56 = ADVANCED_FACE ( 'NONE', ( #242 ), #40, .T. ) ;
#57 = ORIENTED_EDGE ( 'NONE', *, *, #198, .T. ) ;
#58 = DIRECTION ( 'NONE',  ( 0.000000000000000000, 0.000000000000000000, 1.000000000000000000 ) ) ;
#59 = LINE ( 'NONE', #61, #182 ) ;
#60 = LOCAL_TIME ( 10, 21, 24.00000000000000000, #9 ) ;
#61 = CARTESIAN_POINT ( 'NONE',  ( -8.000000000000000000, 0.000000000000000000, 160.0000000000000000 ) ) ;
#62 = CYLINDRICAL_SURFACE ( 'NONE', #150, 11.00000000000000000 ) ;
#63 = PERSON_AND_ORGANIZATION_ROLE ( 'classification_officer' ) ;
#64 = COORDINATED_UNIVERSAL_TIME_OFFSET ( 1, 0, .AHEAD. ) ;
#65 = ADVANCED_FACE ( 'NONE', ( #162 ), #98, .F. ) ;
#66 = PERSON_AND_ORGANIZATION ( #213, #69 ) ;
#67 = EDGE_CURVE ( 'NONE', #96, #16, #192, .T. ) ;
#68 = APPROVAL ( #184, 'NEURÈENÝ' ) ;
#69 = ORGANIZATION ( 'NEURÈENÝ', 'NEURÈENÝ', '' ) ;
#70 = DESIGN_CONTEXT ( 'detailed design', #15, 'design' ) ;
#71 = LOCAL_TIME ( 10, 21, 24.00000000000000000, #188 ) ;
#72 = EDGE_CURVE ( 'NONE', #96, #196, #49, .T. ) ;
#73 = DIRECTION ( 'NONE',  ( 0.000000000000000000, 0.000000000000000000, 1.000000000000000000 ) ) ;
#74 = ORIENTED_EDGE ( 'NONE', *, *, #110, .T. ) ;
#75 = PLANE ( 'NONE',  #220 ) ;
#76 = APPROVAL_DATE_TIME ( #177, #68 ) ;
#77 = DIRECTION ( 'NONE',  ( -0.000000000000000000, -0.000000000000000000, -1.000000000000000000 ) ) ;
#78 = DIRECTION ( 'NONE',  ( 1.000000000000000000, 0.000000000000000000, -0.000000000000000000 ) ) ;
#79 = CARTESIAN_POINT ( 'NONE',  ( 0.000000000000000000, 0.000000000000000000, 7.000000000000000000 ) ) ;
#80 = FACE_OUTER_BOUND ( 'NONE', #232, .T. ) ;
#81 = DATE_AND_TIME ( #8, #36 ) ;
#82 = CALENDAR_DATE ( 2023, 13, 2 ) ;
#83 = AXIS2_PLACEMENT_3D ( 'NONE', #222, #77, #139 ) ;
#84 = APPROVAL_ROLE ( '' ) ;
#85 = VECTOR ( 'NONE', #178, 1000.000000000000000 ) ;
#86 = EDGE_CURVE ( 'NONE', #199, #37, #224, .T. ) ;
#87 = CARTESIAN_POINT ( 'NONE',  ( 0.000000000000000000, 0.000000000000000000, 0.000000000000000000 ) ) ;
#88 = CC_DESIGN_DATE_AND_TIME_ASSIGNMENT ( #81, #202, ( #228 ) ) ;
#89 = ORIENTED_EDGE ( 'NONE', *, *, #121, .F. ) ;
#90 = DATE_TIME_ROLE ( 'creation_date' ) ;
#91 = CC_DESIGN_PERSON_AND_ORGANIZATION_ASSIGNMENT ( #66, #126, ( #190 ) ) ;
#92 = LOCAL_TIME ( 10, 21, 24.00000000000000000, #64 ) ;
#93 = VERTEX_POINT ( 'NONE', #255 ) ;
#94 = PERSON_AND_ORGANIZATION ( #213, #69 ) ;
#95 = CARTESIAN_POINT ( 'NONE',  ( 0.000000000000000000, 0.000000000000000000, 160.0000000000000000 ) ) ;
#96 = VERTEX_POINT ( 'NONE', #250 ) ;
#97 = AXIS2_PLACEMENT_3D ( 'NONE', #134, #249, #50 ) ;
#98 = PLANE ( 'NONE',  #155 ) ;
#99 = EDGE_CURVE ( 'NONE', #33, #93, #252, .T. ) ;
#100 = DIRECTION ( 'NONE',  ( -0.000000000000000000, -0.000000000000000000, -1.000000000000000000 ) ) ;
#101 = DIRECTION ( 'NONE',  ( -1.000000000000000000, 0.000000000000000000, 0.000000000000000000 ) ) ;
#102 = AXIS2_PLACEMENT_3D ( 'NONE', #87, #205, #241 ) ;
#103 = CARTESIAN_POINT ( 'NONE',  ( 11.00000000000000000, 1.347111479062088405E-15, 7.000000000000000000 ) ) ;
#104 = ADVANCED_FACE ( 'NONE', ( #12 ), #19, .T. ) ;
#105 = APPLICATION_CONTEXT ( 'configuration controlled 3d designs of mechanical parts and assemblies' ) ;
#106 = AXIS2_PLACEMENT_3D ( 'NONE', #235, #138, #191 ) ;
#107 = EDGE_CURVE ( 'NONE', #196, #96, #171, .T. ) ;
#108 = DIRECTION ( 'NONE',  ( -0.000000000000000000, -0.000000000000000000, -1.000000000000000000 ) ) ;
#109 = AXIS2_PLACEMENT_3D ( 'NONE', #26, #203, #101 ) ;
#110 = EDGE_CURVE ( 'NONE', #16, #254, #11, .T. ) ;
#111 = MECHANICAL_CONTEXT ( 'NONE', #105, 'mechanical' ) ;
#112 = DATE_AND_TIME ( #166, #71 ) ;
#113 = CARTESIAN_POINT ( 'NONE',  ( 0.000000000000000000, 0.000000000000000000, 160.0000000000000000 ) ) ;
#114 = APPROVAL_STATUS ( 'not_yet_approved' ) ;
#115 = ORIENTED_EDGE ( 'NONE', *, *, #99, .F. ) ;
#116 = PRODUCT_DEFINITION_FORMATION_WITH_SPECIFIED_SOURCE ( 'LIBOVOLNÝ', '', #145, .NOT_KNOWN. ) ;
#117 = EDGE_LOOP ( 'NONE', ( #38, #20 ) ) ;
#118 = MANIFOLD_SOLID_BREP ( 'Pøidat vysunutím3', #167 ) ;
#119 = ORIENTED_EDGE ( 'NONE', *, *, #25, .T. ) ;
#120 = CARTESIAN_POINT ( 'NONE',  ( 8.000000000000000000, 9.797174393178825657E-16, 7.000000000000000000 ) ) ;
#121 = EDGE_CURVE ( 'NONE', #93, #33, #55, .T. ) ;
#122 = PERSON_AND_ORGANIZATION ( #213, #69 ) ;
#123 = APPROVAL_PERSON_ORGANIZATION ( #218, #1, #30 ) ;
#124 = DIRECTION ( 'NONE',  ( -0.000000000000000000, -0.000000000000000000, -1.000000000000000000 ) ) ;
#125 = CARTESIAN_POINT ( 'NONE',  ( 0.000000000000000000, 0.000000000000000000, 7.000000000000000000 ) ) ;
#126 = PERSON_AND_ORGANIZATION_ROLE ( 'creator' ) ;
#127 = ADVANCED_FACE ( 'NONE', ( #200 ), #75, .T. ) ;
#128 = CIRCLE ( 'NONE', #10, 11.00000000000000000 ) ;
#129 = EDGE_LOOP ( 'NONE', ( #233, #216 ) ) ;
#130 = CIRCLE ( 'NONE', #143, 8.000000000000000000 ) ;
#131 = DIRECTION ( 'NONE',  ( 1.000000000000000000, 0.000000000000000000, -0.000000000000000000 ) ) ;
#132 = ORIENTED_EDGE ( 'NONE', *, *, #4, .T. ) ;
#133 = CC_DESIGN_PERSON_AND_ORGANIZATION_ASSIGNMENT ( #247, #63, ( #228 ) ) ;
#134 = CARTESIAN_POINT ( 'NONE',  ( 0.000000000000000000, 0.000000000000000000, 0.000000000000000000 ) ) ;
#135 = ORIENTED_EDGE ( 'NONE', *, *, #72, .F. ) ;
#136 = DIRECTION ( 'NONE',  ( -1.000000000000000000, 0.000000000000000000, 0.000000000000000000 ) ) ;
#137 = ORIENTED_EDGE ( 'NONE', *, *, #67, .T. ) ;
#138 = DIRECTION ( 'NONE',  ( 0.000000000000000000, 0.000000000000000000, 1.000000000000000000 ) ) ;
#139 = DIRECTION ( 'NONE',  ( -1.000000000000000000, 0.000000000000000000, 0.000000000000000000 ) ) ;
#140 = CARTESIAN_POINT ( 'NONE',  ( -8.000000000000000000, 0.000000000000000000, 7.000000000000000000 ) ) ;
#141 = LOCAL_TIME ( 10, 21, 24.00000000000000000, #44 ) ;
#142 = SHAPE_DEFINITION_REPRESENTATION ( #234, #28 ) ;
#143 = AXIS2_PLACEMENT_3D ( 'NONE', #175, #39, #223 ) ;
#144 = CC_DESIGN_PERSON_AND_ORGANIZATION_ASSIGNMENT ( #7, #206, ( #116 ) ) ;
#145 = PRODUCT ( 'f50b', 'f50b', '', ( #111 ) ) ;
#146 = VECTOR ( 'NONE', #14, 1000.000000000000000 ) ;
#147 = SECURITY_CLASSIFICATION_LEVEL ( 'unclassified' ) ;
#148 = DIRECTION ( 'NONE',  ( 0.000000000000000000, 0.000000000000000000, 1.000000000000000000 ) ) ;
#149 = AXIS2_PLACEMENT_3D ( 'NONE', #113, #152, #197 ) ;
#150 = AXIS2_PLACEMENT_3D ( 'NONE', #79, #100, #183 ) ;
#151 = CC_DESIGN_SECURITY_CLASSIFICATION ( #228, ( #116 ) ) ;
#152 = DIRECTION ( 'NONE',  ( 0.000000000000000000, 0.000000000000000000, 1.000000000000000000 ) ) ;
#153 = ORIENTED_EDGE ( 'NONE', *, *, #174, .T. ) ;
#154 = DIRECTION ( 'NONE',  ( 1.000000000000000000, 0.000000000000000000, 0.000000000000000000 ) ) ;
#155 = AXIS2_PLACEMENT_3D ( 'NONE', #246, #148, #131 ) ;
#156 = DIRECTION ( 'NONE',  ( 0.000000000000000000, 0.000000000000000000, 1.000000000000000000 ) ) ;
#157 = CARTESIAN_POINT ( 'NONE',  ( -11.00000000000000000, 0.000000000000000000, 0.000000000000000000 ) ) ;
#158 =( NAMED_UNIT ( * ) PLANE_ANGLE_UNIT ( ) SI_UNIT ( $, .RADIAN. ) );
#159 = AXIS2_PLACEMENT_3D ( 'NONE', #95, #73, #154 ) ;
#160 =( LENGTH_UNIT ( ) NAMED_UNIT ( * ) SI_UNIT ( .MILLI., .METRE. ) );
#161 = CC_DESIGN_DATE_AND_TIME_ASSIGNMENT ( #112, #90, ( #190 ) ) ;
#162 = FACE_OUTER_BOUND ( 'NONE', #201, .T. ) ;
#163 = PERSON_AND_ORGANIZATION_ROLE ( 'design_supplier' ) ;
#164 = DATE_AND_TIME ( #82, #60 ) ;
#165 = CC_DESIGN_APPROVAL ( #1, ( #190 ) ) ;
#166 = CALENDAR_DATE ( 2023, 13, 2 ) ;
#167 = CLOSED_SHELL ( 'NONE', ( #104, #31, #56, #186, #65, #43, #127 ) ) ;
#168 = CARTESIAN_POINT ( 'NONE',  ( 0.000000000000000000, 0.000000000000000000, 7.000000000000000000 ) ) ;
#169 = ORIENTED_EDGE ( 'NONE', *, *, #107, .F. ) ;
#170 = PERSON_AND_ORGANIZATION ( #213, #69 ) ;
#171 = CIRCLE ( 'NONE', #159, 8.000000000000000000 ) ;
#172 = ORIENTED_EDGE ( 'NONE', *, *, #86, .T. ) ;
#173 = CARTESIAN_POINT ( 'NONE',  ( 8.000000000000000000, 9.797174393178825657E-16, 160.0000000000000000 ) ) ;
#174 = EDGE_CURVE ( 'NONE', #254, #16, #130, .T. ) ;
#175 = CARTESIAN_POINT ( 'NONE',  ( 0.000000000000000000, 0.000000000000000000, 7.000000000000000000 ) ) ;
#176 = DIRECTION ( 'NONE',  ( 1.000000000000000000, 0.000000000000000000, 0.000000000000000000 ) ) ;
#177 = DATE_AND_TIME ( #24, #141 ) ;
#178 = DIRECTION ( 'NONE',  ( -0.000000000000000000, -0.000000000000000000, -1.000000000000000000 ) ) ;
#179 = PERSON_AND_ORGANIZATION ( #213, #69 ) ;
#180 = CARTESIAN_POINT ( 'NONE',  ( 0.000000000000000000, 0.000000000000000000, 160.0000000000000000 ) ) ;
#181 = LINE ( 'NONE', #240, #85 ) ;
#182 = VECTOR ( 'NONE', #207, 1000.000000000000000 ) ;
#183 = DIRECTION ( 'NONE',  ( -1.000000000000000000, 0.000000000000000000, 0.000000000000000000 ) ) ;
#184 = APPROVAL_STATUS ( 'not_yet_approved' ) ;
#185 = COORDINATED_UNIVERSAL_TIME_OFFSET ( 1, 0, .AHEAD. ) ;
#186 = ADVANCED_FACE ( 'NONE', ( #239, #41 ), #237, .T. ) ;
#187 = CC_DESIGN_PERSON_AND_ORGANIZATION_ASSIGNMENT ( #179, #163, ( #116 ) ) ;
#188 = COORDINATED_UNIVERSAL_TIME_OFFSET ( 1, 0, .AHEAD. ) ;
#189 = CC_DESIGN_APPROVAL ( #68, ( #228 ) ) ;
#190 = PRODUCT_DEFINITION ( 'NEZNÁMÝ', '', #116, #70 ) ;
#191 = DIRECTION ( 'NONE',  ( 1.000000000000000000, 0.000000000000000000, 0.000000000000000000 ) ) ;
#192 = LINE ( 'NONE', #173, #146 ) ;
#193 = ORIENTED_EDGE ( 'NONE', *, *, #198, .F. ) ;
#194 = DIRECTION ( 'NONE',  ( 0.000000000000000000, 0.000000000000000000, 1.000000000000000000 ) ) ;
#195 = CARTESIAN_POINT ( 'NONE',  ( 0.000000000000000000, 0.000000000000000000, 160.0000000000000000 ) ) ;
#196 = VERTEX_POINT ( 'NONE', #2 ) ;
#197 = DIRECTION ( 'NONE',  ( 1.000000000000000000, 0.000000000000000000, 0.000000000000000000 ) ) ;
#198 = EDGE_CURVE ( 'NONE', #196, #254, #59, .T. ) ;
#199 = VERTEX_POINT ( 'NONE', #3 ) ;
#200 = FACE_OUTER_BOUND ( 'NONE', #117, .T. ) ;
#201 = EDGE_LOOP ( 'NONE', ( #115, #89 ) ) ;
#202 = DATE_TIME_ROLE ( 'classification_date' ) ;
#203 = DIRECTION ( 'NONE',  ( -0.000000000000000000, -0.000000000000000000, -1.000000000000000000 ) ) ;
#204 = CC_DESIGN_APPROVAL ( #217, ( #116 ) ) ;
#205 = DIRECTION ( 'NONE',  ( 0.000000000000000000, 0.000000000000000000, 1.000000000000000000 ) ) ;
#206 = PERSON_AND_ORGANIZATION_ROLE ( 'creator' ) ;
#207 = DIRECTION ( 'NONE',  ( -0.000000000000000000, -0.000000000000000000, -1.000000000000000000 ) ) ;
#208 = EDGE_LOOP ( 'NONE', ( #135, #137, #74, #193 ) ) ;
#209 = DIRECTION ( 'NONE',  ( 0.000000000000000000, 0.000000000000000000, 1.000000000000000000 ) ) ;
#210 = FACE_OUTER_BOUND ( 'NONE', #48, .T. ) ;
#211 = CALENDAR_DATE ( 2023, 13, 2 ) ;
#212 =( NAMED_UNIT ( * ) SI_UNIT ( $, .STERADIAN. ) SOLID_ANGLE_UNIT ( ) );
#213 = PERSON ( 'NEURÈENÝ', 'NEURÈENÝ', 'NEURÈENÝ', ('NEURÈENÝ'), ('NEURÈENÝ'), ('NEURÈENÝ') ) ;
#214 = AXIS2_PLACEMENT_3D ( 'NONE', #168, #194, #52 ) ;
#215 = ORIENTED_EDGE ( 'NONE', *, *, #25, .F. ) ;
#216 = ORIENTED_EDGE ( 'NONE', *, *, #110, .F. ) ;
#217 = APPROVAL ( #114, 'NEURÈENÝ' ) ;
#218 = PERSON_AND_ORGANIZATION ( #213, #69 ) ;
#219 = ORIENTED_EDGE ( 'NONE', *, *, #47, .T. ) ;
#220 = AXIS2_PLACEMENT_3D ( 'NONE', #180, #209, #78 ) ;
#221 = EDGE_LOOP ( 'NONE', ( #215, #251, #219, #21 ) ) ;
#222 = CARTESIAN_POINT ( 'NONE',  ( 0.000000000000000000, 0.000000000000000000, 160.0000000000000000 ) ) ;
#223 = DIRECTION ( 'NONE',  ( 1.000000000000000000, 0.000000000000000000, 0.000000000000000000 ) ) ;
#224 = CIRCLE ( 'NONE', #214, 11.00000000000000000 ) ;
#225 = APPROVAL_ROLE ( '' ) ;
#226 = AXIS2_PLACEMENT_3D ( 'NONE', #245, #58, #42 ) ;
#227 = ORIENTED_EDGE ( 'NONE', *, *, #4, .F. ) ;
#228 = SECURITY_CLASSIFICATION ( '', '', #147 ) ;
#229 = APPLICATION_PROTOCOL_DEFINITION ( 'international standard', 'config_control_design', 1994, #15 ) ;
#230 = CC_DESIGN_PERSON_AND_ORGANIZATION_ASSIGNMENT ( #94, #51, ( #145 ) ) ;
#231 = DIRECTION ( 'NONE',  ( 1.000000000000000000, 0.000000000000000000, 0.000000000000000000 ) ) ;
#232 = EDGE_LOOP ( 'NONE', ( #236, #169, #57, #153 ) ) ;
#233 = ORIENTED_EDGE ( 'NONE', *, *, #174, .F. ) ;
#234 = PRODUCT_DEFINITION_SHAPE ( 'NONE', 'NONE',  #190 ) ;
#235 = CARTESIAN_POINT ( 'NONE',  ( 0.000000000000000000, 0.000000000000000000, 7.000000000000000000 ) ) ;
#236 = ORIENTED_EDGE ( 'NONE', *, *, #67, .F. ) ;
#237 = PLANE ( 'NONE',  #226 ) ;
#238 = CYLINDRICAL_SURFACE ( 'NONE', #83, 8.000000000000000000 ) ;
#239 = FACE_BOUND ( 'NONE', #129, .T. ) ;
#240 = CARTESIAN_POINT ( 'NONE',  ( -11.00000000000000000, 0.000000000000000000, 7.000000000000000000 ) ) ;
#241 = DIRECTION ( 'NONE',  ( 1.000000000000000000, 0.000000000000000000, 0.000000000000000000 ) ) ;
#242 = FACE_OUTER_BOUND ( 'NONE', #221, .T. ) ;
#243 = DATE_AND_TIME ( #211, #92 ) ;
#244 = APPROVAL_PERSON_ORGANIZATION ( #170, #217, #84 ) ;
#245 = CARTESIAN_POINT ( 'NONE',  ( 0.000000000000000000, 0.000000000000000000, 7.000000000000000000 ) ) ;
#246 = CARTESIAN_POINT ( 'NONE',  ( 0.000000000000000000, 0.000000000000000000, 0.000000000000000000 ) ) ;
#247 = PERSON_AND_ORGANIZATION ( #213, #69 ) ;
#248 = CARTESIAN_POINT ( 'NONE',  ( 0.000000000000000000, 0.000000000000000000, 0.000000000000000000 ) ) ;
#249 = DIRECTION ( 'NONE',  ( 0.000000000000000000, 0.000000000000000000, 1.000000000000000000 ) ) ;
#250 = CARTESIAN_POINT ( 'NONE',  ( 8.000000000000000000, 9.797174393178825657E-16, 160.0000000000000000 ) ) ;
#251 = ORIENTED_EDGE ( 'NONE', *, *, #86, .F. ) ;
#252 = CIRCLE ( 'NONE', #97, 11.00000000000000000 ) ;
#253 = EDGE_LOOP ( 'NONE', ( #172, #132 ) ) ;
#254 = VERTEX_POINT ( 'NONE', #140 ) ;
#255 = CARTESIAN_POINT ( 'NONE',  ( 11.00000000000000000, 1.347111479062088405E-15, 0.000000000000000000 ) ) ;
ENDSEC;
END-ISO-10303-21;
