ISO-10303-21;
HEADER;
FILE_DESCRIPTION (( 'STEP AP203' ),
    '1' );
FILE_NAME ('d91c.STEP',
    '2023-01-31T14:46:57',
    ( '' ),
    ( '' ),
    'SwSTEP 2.0',
    'SolidWorks 2019',
    '' );
FILE_SCHEMA (( 'CONFIG_CONTROL_DESIGN' ));
ENDSEC;

DATA;
#1 = FACE_OUTER_BOUND ( 'NONE', #217, .T. ) ;
#2 = DIRECTION ( 'NONE',  ( 1.000000000000000000, 0.000000000000000000, 0.000000000000000000 ) ) ;
#3 = DIRECTION ( 'NONE',  ( -0.000000000000000000, -0.000000000000000000, -1.000000000000000000 ) ) ;
#4 = ADVANCED_FACE ( 'NONE', ( #98, #204 ), #123, .T. ) ;
#5 = CIRCLE ( 'NONE', #15, 1.250000000000000000 ) ;
#6 = CARTESIAN_POINT ( 'NONE',  ( 0.000000000000000000, 0.000000000000000000, 0.000000000000000000 ) ) ;
#7 = CARTESIAN_POINT ( 'NONE',  ( -1.250000000000000000, 0.000000000000000000, 1.199999999999999956 ) ) ;
#8 = APPROVAL_STATUS ( 'not_yet_approved' ) ;
#9 = DATE_AND_TIME ( #109, #164 ) ;
#10 = PRODUCT ( 'd91c', 'd91c', '', ( #209 ) ) ;
#11 = APPROVAL_PERSON_ORGANIZATION ( #69, #214, #225 ) ;
#12 = PERSON_AND_ORGANIZATION ( #95, #244 ) ;
#13 = PERSON_AND_ORGANIZATION ( #95, #244 ) ;
#14 = COORDINATED_UNIVERSAL_TIME_OFFSET ( 1, 0, .AHEAD. ) ;
#15 = AXIS2_PLACEMENT_3D ( 'NONE', #161, #48, #26 ) ;
#16 = PRODUCT_DEFINITION ( 'NEZNÁMÝ', '', #169, #138 ) ;
#17 = EDGE_LOOP ( 'NONE', ( #248, #216, #230, #174 ) ) ;
#18 = ORIENTED_EDGE ( 'NONE', *, *, #177, .T. ) ;
#19 = VECTOR ( 'NONE', #3, 1000.000000000000000 ) ;
#20 = APPROVAL_DATE_TIME ( #197, #93 ) ;
#21 = SECURITY_CLASSIFICATION_LEVEL ( 'unclassified' ) ;
#22 = ORIENTED_EDGE ( 'NONE', *, *, #53, .T. ) ;
#23 = DIRECTION ( 'NONE',  ( 0.000000000000000000, 0.000000000000000000, 1.000000000000000000 ) ) ;
#24 = EDGE_CURVE ( 'NONE', #120, #199, #176, .T. ) ;
#25 = PLANE ( 'NONE',  #152 ) ;
#26 = DIRECTION ( 'NONE',  ( 1.000000000000000000, 0.000000000000000000, 0.000000000000000000 ) ) ;
#27 = DIRECTION ( 'NONE',  ( 0.000000000000000000, 0.000000000000000000, 1.000000000000000000 ) ) ;
#28 = CC_DESIGN_APPROVAL ( #93, ( #251 ) ) ;
#29 = DIRECTION ( 'NONE',  ( 0.000000000000000000, 0.000000000000000000, 1.000000000000000000 ) ) ;
#30 = CARTESIAN_POINT ( 'NONE',  ( -1.250000000000000000, 0.000000000000000000, 0.000000000000000000 ) ) ;
#31 = CC_DESIGN_DATE_AND_TIME_ASSIGNMENT ( #188, #229, ( #16 ) ) ;
#32 = APPLICATION_PROTOCOL_DEFINITION ( 'international standard', 'config_control_design', 1994, #43 ) ;
#33 = CARTESIAN_POINT ( 'NONE',  ( 0.000000000000000000, 0.000000000000000000, 100.0000000000000000 ) ) ;
#34 = CALENDAR_DATE ( 2023, 31, 1 ) ;
#35 = CIRCLE ( 'NONE', #193, 1.250000000000000000 ) ;
#36 = EDGE_CURVE ( 'NONE', #155, #253, #183, .T. ) ;
#37 =( GEOMETRIC_REPRESENTATION_CONTEXT ( 3 ) GLOBAL_UNCERTAINTY_ASSIGNED_CONTEXT ( ( #189 ) ) GLOBAL_UNIT_ASSIGNED_CONTEXT ( ( #245, #243, #132 ) ) REPRESENTATION_CONTEXT ( 'NONE', 'WORKASPACE' ) );
#38 = ORIENTED_EDGE ( 'NONE', *, *, #147, .T. ) ;
#39 = CALENDAR_DATE ( 2023, 31, 1 ) ;
#40 = ORIENTED_EDGE ( 'NONE', *, *, #156, .T. ) ;
#41 = AXIS2_PLACEMENT_3D ( 'NONE', #148, #49, #178 ) ;
#42 = VERTEX_POINT ( 'NONE', #63 ) ;
#43 = APPLICATION_CONTEXT ( 'configuration controlled 3d designs of mechanical parts and assemblies' ) ;
#44 = CARTESIAN_POINT ( 'NONE',  ( 0.000000000000000000, 0.000000000000000000, 100.0000000000000000 ) ) ;
#45 = EDGE_CURVE ( 'NONE', #141, #61, #160, .T. ) ;
#46 = FACE_OUTER_BOUND ( 'NONE', #100, .T. ) ;
#47 = AXIS2_PLACEMENT_3D ( 'NONE', #6, #65, #121 ) ;
#48 = DIRECTION ( 'NONE',  ( 0.000000000000000000, 0.000000000000000000, 1.000000000000000000 ) ) ;
#49 = DIRECTION ( 'NONE',  ( -0.000000000000000000, -0.000000000000000000, -1.000000000000000000 ) ) ;
#50 = AXIS2_PLACEMENT_3D ( 'NONE', #85, #107, #157 ) ;
#51 = DIRECTION ( 'NONE',  ( 1.000000000000000000, 0.000000000000000000, -0.000000000000000000 ) ) ;
#52 = APPROVAL_DATE_TIME ( #151, #214 ) ;
#53 = EDGE_CURVE ( 'NONE', #120, #155, #5, .T. ) ;
#54 = DIRECTION ( 'NONE',  ( 1.000000000000000000, 0.000000000000000000, 0.000000000000000000 ) ) ;
#55 = CARTESIAN_POINT ( 'NONE',  ( -0.5000000000000000000, 0.000000000000000000, 1.199999999999999956 ) ) ;
#56 = LINE ( 'NONE', #228, #86 ) ;
#57 = ORIENTED_EDGE ( 'NONE', *, *, #147, .F. ) ;
#58 = CC_DESIGN_APPROVAL ( #214, ( #16 ) ) ;
#59 = SHAPE_DEFINITION_REPRESENTATION ( #226, #175 ) ;
#60 = EDGE_LOOP ( 'NONE', ( #75, #102 ) ) ;
#61 = VERTEX_POINT ( 'NONE', #158 ) ;
#62 = FACE_OUTER_BOUND ( 'NONE', #194, .T. ) ;
#63 = CARTESIAN_POINT ( 'NONE',  ( 0.5000000000000000000, 6.123233995736766036E-17, 1.199999999999999956 ) ) ;
#64 = AXIS2_PLACEMENT_3D ( 'NONE', #113, #67, #190 ) ;
#65 = DIRECTION ( 'NONE',  ( 0.000000000000000000, 0.000000000000000000, 1.000000000000000000 ) ) ;
#66 = DIRECTION ( 'NONE',  ( 1.000000000000000000, 0.000000000000000000, 0.000000000000000000 ) ) ;
#67 = DIRECTION ( 'NONE',  ( 0.000000000000000000, 0.000000000000000000, 1.000000000000000000 ) ) ;
#68 = AXIS2_PLACEMENT_3D ( 'NONE', #33, #227, #207 ) ;
#69 = PERSON_AND_ORGANIZATION ( #95, #244 ) ;
#70 = ADVANCED_FACE ( 'NONE', ( #236 ), #25, .F. ) ;
#71 = CARTESIAN_POINT ( 'NONE',  ( 1.250000000000000000, 1.530808498934191571E-16, 0.000000000000000000 ) ) ;
#72 = COORDINATED_UNIVERSAL_TIME_OFFSET ( 1, 0, .AHEAD. ) ;
#73 = CALENDAR_DATE ( 2023, 31, 1 ) ;
#74 = COORDINATED_UNIVERSAL_TIME_OFFSET ( 1, 0, .AHEAD. ) ;
#75 = ORIENTED_EDGE ( 'NONE', *, *, #156, .F. ) ;
#76 = PERSON_AND_ORGANIZATION_ROLE ( 'classification_officer' ) ;
#77 = ADVANCED_FACE ( 'NONE', ( #235 ), #143, .T. ) ;
#78 = EDGE_LOOP ( 'NONE', ( #97, #57 ) ) ;
#79 = PERSON_AND_ORGANIZATION ( #95, #244 ) ;
#80 = ORIENTED_EDGE ( 'NONE', *, *, #45, .T. ) ;
#81 = CIRCLE ( 'NONE', #173, 0.5000000000000000000 ) ;
#82 = APPROVAL ( #96, 'NEURÈENÝ' ) ;
#83 = CYLINDRICAL_SURFACE ( 'NONE', #122, 0.5000000000000000000 ) ;
#84 = DIRECTION ( 'NONE',  ( 0.000000000000000000, 0.000000000000000000, 1.000000000000000000 ) ) ;
#85 = CARTESIAN_POINT ( 'NONE',  ( 0.000000000000000000, 0.000000000000000000, 100.0000000000000000 ) ) ;
#86 = VECTOR ( 'NONE', #185, 1000.000000000000000 ) ;
#87 = CARTESIAN_POINT ( 'NONE',  ( 0.000000000000000000, 0.000000000000000000, 1.199999999999999956 ) ) ;
#88 = CARTESIAN_POINT ( 'NONE',  ( -0.5000000000000000000, 0.000000000000000000, 100.0000000000000000 ) ) ;
#89 = CC_DESIGN_PERSON_AND_ORGANIZATION_ASSIGNMENT ( #108, #110, ( #16 ) ) ;
#90 = APPROVAL_DATE_TIME ( #9, #82 ) ;
#91 = MANIFOLD_SOLID_BREP ( 'Pøidat vysunutím3', #237 ) ;
#92 = DIRECTION ( 'NONE',  ( 0.000000000000000000, 0.000000000000000000, 1.000000000000000000 ) ) ;
#93 = APPROVAL ( #115, 'NEURÈENÝ' ) ;
#94 = VECTOR ( 'NONE', #179, 1000.000000000000000 ) ;
#95 = PERSON ( 'NEURÈENÝ', 'NEURÈENÝ', 'NEURÈENÝ', ('NEURÈENÝ'), ('NEURÈENÝ'), ('NEURÈENÝ') ) ;
#96 = APPROVAL_STATUS ( 'not_yet_approved' ) ;
#97 = ORIENTED_EDGE ( 'NONE', *, *, #170, .F. ) ;
#98 = FACE_BOUND ( 'NONE', #78, .T. ) ;
#99 = DATE_AND_TIME ( #39, #220 ) ;
#100 = EDGE_LOOP ( 'NONE', ( #80, #198 ) ) ;
#101 = ORIENTED_EDGE ( 'NONE', *, *, #24, .T. ) ;
#102 = ORIENTED_EDGE ( 'NONE', *, *, #166, .F. ) ;
#103 = CARTESIAN_POINT ( 'NONE',  ( 1.250000000000000000, 1.530808498934191571E-16, 1.199999999999999956 ) ) ;
#104 = DIRECTION ( 'NONE',  ( -0.000000000000000000, -0.000000000000000000, -1.000000000000000000 ) ) ;
#105 = CARTESIAN_POINT ( 'NONE',  ( 0.000000000000000000, 0.000000000000000000, 0.000000000000000000 ) ) ;
#106 = LOCAL_TIME ( 15, 46, 57.00000000000000000, #74 ) ;
#107 = DIRECTION ( 'NONE',  ( 0.000000000000000000, 0.000000000000000000, 1.000000000000000000 ) ) ;
#108 = PERSON_AND_ORGANIZATION ( #95, #244 ) ;
#109 = CALENDAR_DATE ( 2023, 31, 1 ) ;
#110 = PERSON_AND_ORGANIZATION_ROLE ( 'creator' ) ;
#111 = APPROVAL_PERSON_ORGANIZATION ( #231, #93, #254 ) ;
#112 = CC_DESIGN_PERSON_AND_ORGANIZATION_ASSIGNMENT ( #210, #76, ( #251 ) ) ;
#113 = CARTESIAN_POINT ( 'NONE',  ( 0.000000000000000000, 0.000000000000000000, 0.000000000000000000 ) ) ;
#114 = AXIS2_PLACEMENT_3D ( 'NONE', #163, #104, #221 ) ;
#115 = APPROVAL_STATUS ( 'not_yet_approved' ) ;
#116 = CIRCLE ( 'NONE', #224, 1.250000000000000000 ) ;
#117 = ORIENTED_EDGE ( 'NONE', *, *, #191, .F. ) ;
#118 = ORIENTED_EDGE ( 'NONE', *, *, #208, .F. ) ;
#119 = PERSON_AND_ORGANIZATION_ROLE ( 'creator' ) ;
#120 = VERTEX_POINT ( 'NONE', #145 ) ;
#121 = DIRECTION ( 'NONE',  ( 1.000000000000000000, 0.000000000000000000, 0.000000000000000000 ) ) ;
#122 = AXIS2_PLACEMENT_3D ( 'NONE', #44, #203, #180 ) ;
#123 = PLANE ( 'NONE',  #130 ) ;
#124 = CARTESIAN_POINT ( 'NONE',  ( 1.250000000000000000, 1.530808498934191571E-16, 1.199999999999999956 ) ) ;
#125 = FACE_OUTER_BOUND ( 'NONE', #17, .T. ) ;
#126 = CIRCLE ( 'NONE', #211, 0.5000000000000000000 ) ;
#127 = DIRECTION ( 'NONE',  ( 0.000000000000000000, 0.000000000000000000, 1.000000000000000000 ) ) ;
#128 = ADVANCED_FACE ( 'NONE', ( #46 ), #142, .T. ) ;
#129 = CALENDAR_DATE ( 2023, 31, 1 ) ;
#130 = AXIS2_PLACEMENT_3D ( 'NONE', #241, #146, #219 ) ;
#131 = EDGE_CURVE ( 'NONE', #61, #42, #159, .T. ) ;
#132 =( NAMED_UNIT ( * ) SI_UNIT ( $, .STERADIAN. ) SOLID_ANGLE_UNIT ( ) );
#133 = CARTESIAN_POINT ( 'NONE',  ( 0.000000000000000000, 0.000000000000000000, 100.0000000000000000 ) ) ;
#134 = APPLICATION_CONTEXT ( 'configuration controlled 3d designs of mechanical parts and assemblies' ) ;
#135 = LOCAL_TIME ( 15, 46, 57.00000000000000000, #14 ) ;
#136 = CC_DESIGN_PERSON_AND_ORGANIZATION_ASSIGNMENT ( #13, #150, ( #10 ) ) ;
#137 = ORIENTED_EDGE ( 'NONE', *, *, #131, .T. ) ;
#138 = DESIGN_CONTEXT ( 'detailed design', #134, 'design' ) ;
#139 = ORIENTED_EDGE ( 'NONE', *, *, #177, .F. ) ;
#140 = CIRCLE ( 'NONE', #47, 1.250000000000000000 ) ;
#141 = VERTEX_POINT ( 'NONE', #88 ) ;
#142 = PLANE ( 'NONE',  #50 ) ;
#143 = CYLINDRICAL_SURFACE ( 'NONE', #41, 1.250000000000000000 ) ;
#144 = ADVANCED_FACE ( 'NONE', ( #1 ), #223, .T. ) ;
#145 = CARTESIAN_POINT ( 'NONE',  ( -1.250000000000000000, 0.000000000000000000, 1.199999999999999956 ) ) ;
#146 = DIRECTION ( 'NONE',  ( 0.000000000000000000, 0.000000000000000000, 1.000000000000000000 ) ) ;
#147 = EDGE_CURVE ( 'NONE', #42, #255, #192, .T. ) ;
#148 = CARTESIAN_POINT ( 'NONE',  ( 0.000000000000000000, 0.000000000000000000, 1.199999999999999956 ) ) ;
#149 = AXIS2_PLACEMENT_3D ( 'NONE', #87, #127, #240 ) ;
#150 = PERSON_AND_ORGANIZATION_ROLE ( 'design_owner' ) ;
#151 = DATE_AND_TIME ( #73, #182 ) ;
#152 = AXIS2_PLACEMENT_3D ( 'NONE', #105, #84, #51 ) ;
#153 = DIRECTION ( 'NONE',  ( 0.000000000000000000, 0.000000000000000000, 1.000000000000000000 ) ) ;
#154 = APPLICATION_PROTOCOL_DEFINITION ( 'international standard', 'config_control_design', 1994, #134 ) ;
#155 = VERTEX_POINT ( 'NONE', #124 ) ;
#156 = EDGE_CURVE ( 'NONE', #199, #253, #35, .T. ) ;
#157 = DIRECTION ( 'NONE',  ( 1.000000000000000000, 0.000000000000000000, -0.000000000000000000 ) ) ;
#158 = CARTESIAN_POINT ( 'NONE',  ( 0.5000000000000000000, 6.123233995736766036E-17, 100.0000000000000000 ) ) ;
#159 = LINE ( 'NONE', #238, #181 ) ;
#160 = CIRCLE ( 'NONE', #196, 0.5000000000000000000 ) ;
#161 = CARTESIAN_POINT ( 'NONE',  ( 0.000000000000000000, 0.000000000000000000, 1.199999999999999956 ) ) ;
#162 = ADVANCED_FACE ( 'NONE', ( #62 ), #83, .T. ) ;
#163 = CARTESIAN_POINT ( 'NONE',  ( 0.000000000000000000, 0.000000000000000000, 1.199999999999999956 ) ) ;
#164 = LOCAL_TIME ( 15, 46, 57.00000000000000000, #206 ) ;
#165 = PERSON_AND_ORGANIZATION ( #95, #244 ) ;
#166 = EDGE_CURVE ( 'NONE', #253, #199, #140, .T. ) ;
#167 = CARTESIAN_POINT ( 'NONE',  ( 0.000000000000000000, 0.000000000000000000, 1.199999999999999956 ) ) ;
#168 = DIRECTION ( 'NONE',  ( 1.000000000000000000, 0.000000000000000000, 0.000000000000000000 ) ) ;
#169 = PRODUCT_DEFINITION_FORMATION_WITH_SPECIFIED_SOURCE ( 'LIBOVOLNÝ', '', #10, .NOT_KNOWN. ) ;
#170 = EDGE_CURVE ( 'NONE', #255, #42, #81, .T. ) ;
#171 = ORIENTED_EDGE ( 'NONE', *, *, #24, .F. ) ;
#172 = ADVANCED_FACE ( 'NONE', ( #125 ), #246, .T. ) ;
#173 = AXIS2_PLACEMENT_3D ( 'NONE', #200, #23, #222 ) ;
#174 = ORIENTED_EDGE ( 'NONE', *, *, #170, .T. ) ;
#175 = ADVANCED_BREP_SHAPE_REPRESENTATION ( 'd91c', ( #91, #64 ), #37 ) ;
#176 = LINE ( 'NONE', #7, #19 ) ;
#177 = EDGE_CURVE ( 'NONE', #155, #120, #116, .T. ) ;
#178 = DIRECTION ( 'NONE',  ( -1.000000000000000000, 0.000000000000000000, 0.000000000000000000 ) ) ;
#179 = DIRECTION ( 'NONE',  ( -0.000000000000000000, -0.000000000000000000, -1.000000000000000000 ) ) ;
#180 = DIRECTION ( 'NONE',  ( -1.000000000000000000, 0.000000000000000000, 0.000000000000000000 ) ) ;
#181 = VECTOR ( 'NONE', #218, 1000.000000000000000 ) ;
#182 = LOCAL_TIME ( 15, 46, 57.00000000000000000, #72 ) ;
#183 = LINE ( 'NONE', #103, #94 ) ;
#184 = APPROVAL_ROLE ( '' ) ;
#185 = DIRECTION ( 'NONE',  ( -0.000000000000000000, -0.000000000000000000, -1.000000000000000000 ) ) ;
#186 = APPROVAL_PERSON_ORGANIZATION ( #12, #82, #184 ) ;
#187 = PRODUCT_RELATED_PRODUCT_CATEGORY ( 'detail', '', ( #10 ) ) ;
#188 = DATE_AND_TIME ( #129, #135 ) ;
#189 = UNCERTAINTY_MEASURE_WITH_UNIT (LENGTH_MEASURE( 1.000000000000000082E-05 ), #245, 'distance_accuracy_value', 'NONE');
#190 = DIRECTION ( 'NONE',  ( 1.000000000000000000, 0.000000000000000000, 0.000000000000000000 ) ) ;
#191 = EDGE_CURVE ( 'NONE', #141, #255, #56, .T. ) ;
#192 = CIRCLE ( 'NONE', #149, 0.5000000000000000000 ) ;
#193 = AXIS2_PLACEMENT_3D ( 'NONE', #205, #29, #2 ) ;
#194 = EDGE_LOOP ( 'NONE', ( #118, #137, #38, #117 ) ) ;
#195 = ORIENTED_EDGE ( 'NONE', *, *, #166, .T. ) ;
#196 = AXIS2_PLACEMENT_3D ( 'NONE', #202, #27, #66 ) ;
#197 = DATE_AND_TIME ( #34, #106 ) ;
#198 = ORIENTED_EDGE ( 'NONE', *, *, #208, .T. ) ;
#199 = VERTEX_POINT ( 'NONE', #30 ) ;
#200 = CARTESIAN_POINT ( 'NONE',  ( 0.000000000000000000, 0.000000000000000000, 1.199999999999999956 ) ) ;
#201 = CC_DESIGN_APPROVAL ( #82, ( #169 ) ) ;
#202 = CARTESIAN_POINT ( 'NONE',  ( 0.000000000000000000, 0.000000000000000000, 100.0000000000000000 ) ) ;
#203 = DIRECTION ( 'NONE',  ( -0.000000000000000000, -0.000000000000000000, -1.000000000000000000 ) ) ;
#204 = FACE_OUTER_BOUND ( 'NONE', #212, .T. ) ;
#205 = CARTESIAN_POINT ( 'NONE',  ( 0.000000000000000000, 0.000000000000000000, 0.000000000000000000 ) ) ;
#206 = COORDINATED_UNIVERSAL_TIME_OFFSET ( 1, 0, .AHEAD. ) ;
#207 = DIRECTION ( 'NONE',  ( -1.000000000000000000, 0.000000000000000000, 0.000000000000000000 ) ) ;
#208 = EDGE_CURVE ( 'NONE', #61, #141, #126, .T. ) ;
#209 = MECHANICAL_CONTEXT ( 'NONE', #43, 'mechanical' ) ;
#210 = PERSON_AND_ORGANIZATION ( #95, #244 ) ;
#211 = AXIS2_PLACEMENT_3D ( 'NONE', #133, #92, #54 ) ;
#212 = EDGE_LOOP ( 'NONE', ( #22, #18 ) ) ;
#213 = ORIENTED_EDGE ( 'NONE', *, *, #53, .F. ) ;
#214 = APPROVAL ( #8, 'NEURÈENÝ' ) ;
#215 = DATE_TIME_ROLE ( 'classification_date' ) ;
#216 = ORIENTED_EDGE ( 'NONE', *, *, #45, .F. ) ;
#217 = EDGE_LOOP ( 'NONE', ( #139, #234, #195, #171 ) ) ;
#218 = DIRECTION ( 'NONE',  ( -0.000000000000000000, -0.000000000000000000, -1.000000000000000000 ) ) ;
#219 = DIRECTION ( 'NONE',  ( 1.000000000000000000, 0.000000000000000000, -0.000000000000000000 ) ) ;
#220 = LOCAL_TIME ( 15, 46, 57.00000000000000000, #247 ) ;
#221 = DIRECTION ( 'NONE',  ( -1.000000000000000000, 0.000000000000000000, 0.000000000000000000 ) ) ;
#222 = DIRECTION ( 'NONE',  ( 1.000000000000000000, 0.000000000000000000, 0.000000000000000000 ) ) ;
#223 = CYLINDRICAL_SURFACE ( 'NONE', #114, 1.250000000000000000 ) ;
#224 = AXIS2_PLACEMENT_3D ( 'NONE', #167, #153, #168 ) ;
#225 = APPROVAL_ROLE ( '' ) ;
#226 = PRODUCT_DEFINITION_SHAPE ( 'NONE', 'NONE',  #16 ) ;
#227 = DIRECTION ( 'NONE',  ( -0.000000000000000000, -0.000000000000000000, -1.000000000000000000 ) ) ;
#228 = CARTESIAN_POINT ( 'NONE',  ( -0.5000000000000000000, 0.000000000000000000, 100.0000000000000000 ) ) ;
#229 = DATE_TIME_ROLE ( 'creation_date' ) ;
#230 = ORIENTED_EDGE ( 'NONE', *, *, #191, .T. ) ;
#231 = PERSON_AND_ORGANIZATION ( #95, #244 ) ;
#232 = EDGE_LOOP ( 'NONE', ( #250, #213, #101, #40 ) ) ;
#233 = CC_DESIGN_PERSON_AND_ORGANIZATION_ASSIGNMENT ( #165, #119, ( #169 ) ) ;
#234 = ORIENTED_EDGE ( 'NONE', *, *, #36, .T. ) ;
#235 = FACE_OUTER_BOUND ( 'NONE', #232, .T. ) ;
#236 = FACE_OUTER_BOUND ( 'NONE', #60, .T. ) ;
#237 = CLOSED_SHELL ( 'NONE', ( #162, #144, #77, #4, #70, #172, #128 ) ) ;
#238 = CARTESIAN_POINT ( 'NONE',  ( 0.5000000000000000000, 6.123233995736766036E-17, 100.0000000000000000 ) ) ;
#239 = CC_DESIGN_SECURITY_CLASSIFICATION ( #251, ( #169 ) ) ;
#240 = DIRECTION ( 'NONE',  ( 1.000000000000000000, 0.000000000000000000, 0.000000000000000000 ) ) ;
#241 = CARTESIAN_POINT ( 'NONE',  ( 0.000000000000000000, 0.000000000000000000, 1.199999999999999956 ) ) ;
#242 = CC_DESIGN_PERSON_AND_ORGANIZATION_ASSIGNMENT ( #79, #252, ( #169 ) ) ;
#243 =( NAMED_UNIT ( * ) PLANE_ANGLE_UNIT ( ) SI_UNIT ( $, .RADIAN. ) );
#244 = ORGANIZATION ( 'NEURÈENÝ', 'NEURÈENÝ', '' ) ;
#245 =( LENGTH_UNIT ( ) NAMED_UNIT ( * ) SI_UNIT ( .MILLI., .METRE. ) );
#246 = CYLINDRICAL_SURFACE ( 'NONE', #68, 0.5000000000000000000 ) ;
#247 = COORDINATED_UNIVERSAL_TIME_OFFSET ( 1, 0, .AHEAD. ) ;
#248 = ORIENTED_EDGE ( 'NONE', *, *, #131, .F. ) ;
#249 = CC_DESIGN_DATE_AND_TIME_ASSIGNMENT ( #99, #215, ( #251 ) ) ;
#250 = ORIENTED_EDGE ( 'NONE', *, *, #36, .F. ) ;
#251 = SECURITY_CLASSIFICATION ( '', '', #21 ) ;
#252 = PERSON_AND_ORGANIZATION_ROLE ( 'design_supplier' ) ;
#253 = VERTEX_POINT ( 'NONE', #71 ) ;
#254 = APPROVAL_ROLE ( '' ) ;
#255 = VERTEX_POINT ( 'NONE', #55 ) ;
ENDSEC;
END-ISO-10303-21;
