ISO-10303-21;
HEADER;
FILE_DESCRIPTION (( 'STEP AP203' ),
    '1' );
FILE_NAME ('2f62.STEP',
    '2023-02-13T12:53:25',
    ( '' ),
    ( '' ),
    'SwSTEP 2.0',
    'SolidWorks 2019',
    '' );
FILE_SCHEMA (( 'CONFIG_CONTROL_DESIGN' ));
ENDSEC;

DATA;
#1 = CC_DESIGN_PERSON_AND_ORGANIZATION_ASSIGNMENT ( #49, #128, ( #169 ) ) ;
#2 = APPROVAL_DATE_TIME ( #194, #95 ) ;
#3 = DIRECTION ( 'NONE',  ( -0.000000000000000000, -0.000000000000000000, -1.000000000000000000 ) ) ;
#4 = DIRECTION ( 'NONE',  ( -0.000000000000000000, -0.000000000000000000, -1.000000000000000000 ) ) ;
#5 = DIRECTION ( 'NONE',  ( 1.000000000000000000, 0.000000000000000000, 0.000000000000000000 ) ) ;
#6 = CIRCLE ( 'NONE', #191, 7.000000000000000000 ) ;
#7 = CARTESIAN_POINT ( 'NONE',  ( 0.000000000000000000, 0.000000000000000000, 100.0000000000000000 ) ) ;
#8 = APPROVAL ( #252, 'NEURÈENÝ' ) ;
#9 = EDGE_LOOP ( 'NONE', ( #26, #105, #83, #245 ) ) ;
#10 =( LENGTH_UNIT ( ) NAMED_UNIT ( * ) SI_UNIT ( .MILLI., .METRE. ) );
#11 = ORIENTED_EDGE ( 'NONE', *, *, #157, .T. ) ;
#12 = CIRCLE ( 'NONE', #87, 7.000000000000000000 ) ;
#13 = EDGE_CURVE ( 'NONE', #66, #120, #6, .T. ) ;
#14 = FACE_OUTER_BOUND ( 'NONE', #9, .T. ) ;
#15 = COORDINATED_UNIVERSAL_TIME_OFFSET ( 1, 0, .AHEAD. ) ;
#16 = MANIFOLD_SOLID_BREP ( 'Pøidat vysunutím3', #131 ) ;
#17 = EDGE_CURVE ( 'NONE', #241, #167, #77, .T. ) ;
#18 = APPROVAL_DATE_TIME ( #90, #8 ) ;
#19 = ADVANCED_FACE ( 'NONE', ( #198 ), #110, .T. ) ;
#20 = DIRECTION ( 'NONE',  ( 0.000000000000000000, 0.000000000000000000, 1.000000000000000000 ) ) ;
#21 = PLANE ( 'NONE',  #72 ) ;
#22 = DIRECTION ( 'NONE',  ( 0.000000000000000000, 0.000000000000000000, 1.000000000000000000 ) ) ;
#23 = PRODUCT_RELATED_PRODUCT_CATEGORY ( 'detail', '', ( #169 ) ) ;
#24 = APPROVAL_PERSON_ORGANIZATION ( #111, #92, #137 ) ;
#25 = CARTESIAN_POINT ( 'NONE',  ( -4.250000000000000000, 0.000000000000000000, 100.0000000000000000 ) ) ;
#26 = ORIENTED_EDGE ( 'NONE', *, *, #143, .F. ) ;
#27 = CARTESIAN_POINT ( 'NONE',  ( 0.000000000000000000, 0.000000000000000000, 5.000000000000000000 ) ) ;
#28 = ORIENTED_EDGE ( 'NONE', *, *, #250, .T. ) ;
#29 = ORIENTED_EDGE ( 'NONE', *, *, #143, .T. ) ;
#30 = CARTESIAN_POINT ( 'NONE',  ( -7.000000000000000000, 0.000000000000000000, 5.000000000000000000 ) ) ;
#31 = MECHANICAL_CONTEXT ( 'NONE', #121, 'mechanical' ) ;
#32 = COORDINATED_UNIVERSAL_TIME_OFFSET ( 1, 0, .AHEAD. ) ;
#33 = CALENDAR_DATE ( 2023, 13, 2 ) ;
#34 = FACE_OUTER_BOUND ( 'NONE', #187, .T. ) ;
#35 = FACE_OUTER_BOUND ( 'NONE', #146, .T. ) ;
#36 = PERSON_AND_ORGANIZATION ( #242, #145 ) ;
#37 = DIRECTION ( 'NONE',  ( 0.000000000000000000, 0.000000000000000000, 1.000000000000000000 ) ) ;
#38 = DESIGN_CONTEXT ( 'detailed design', #228, 'design' ) ;
#39 = CYLINDRICAL_SURFACE ( 'NONE', #55, 4.250000000000000000 ) ;
#40 = APPROVAL_PERSON_ORGANIZATION ( #93, #8, #174 ) ;
#41 = AXIS2_PLACEMENT_3D ( 'NONE', #236, #98, #59 ) ;
#42 = ORIENTED_EDGE ( 'NONE', *, *, #238, .T. ) ;
#43 = EDGE_CURVE ( 'NONE', #120, #66, #12, .T. ) ;
#44 = ORIENTED_EDGE ( 'NONE', *, *, #80, .F. ) ;
#45 = ORIENTED_EDGE ( 'NONE', *, *, #148, .T. ) ;
#46 = ORIENTED_EDGE ( 'NONE', *, *, #13, .T. ) ;
#47 = DIRECTION ( 'NONE',  ( 0.000000000000000000, 0.000000000000000000, 1.000000000000000000 ) ) ;
#48 = AXIS2_PLACEMENT_3D ( 'NONE', #64, #62, #58 ) ;
#49 = PERSON_AND_ORGANIZATION ( #242, #145 ) ;
#50 = CC_DESIGN_APPROVAL ( #8, ( #204 ) ) ;
#51 = AXIS2_PLACEMENT_3D ( 'NONE', #183, #22, #139 ) ;
#52 = EDGE_CURVE ( 'NONE', #71, #241, #220, .T. ) ;
#53 = PERSON_AND_ORGANIZATION_ROLE ( 'design_supplier' ) ;
#54 = AXIS2_PLACEMENT_3D ( 'NONE', #7, #88, #170 ) ;
#55 = AXIS2_PLACEMENT_3D ( 'NONE', #113, #4, #85 ) ;
#56 = EDGE_CURVE ( 'NONE', #221, #120, #181, .T. ) ;
#57 = COORDINATED_UNIVERSAL_TIME_OFFSET ( 1, 0, .AHEAD. ) ;
#58 = DIRECTION ( 'NONE',  ( 1.000000000000000000, 0.000000000000000000, 0.000000000000000000 ) ) ;
#59 = DIRECTION ( 'NONE',  ( 1.000000000000000000, 0.000000000000000000, 0.000000000000000000 ) ) ;
#60 = DATE_AND_TIME ( #33, #118 ) ;
#61 = DIRECTION ( 'NONE',  ( 1.000000000000000000, 0.000000000000000000, -0.000000000000000000 ) ) ;
#62 = DIRECTION ( 'NONE',  ( 0.000000000000000000, 0.000000000000000000, 1.000000000000000000 ) ) ;
#63 = CYLINDRICAL_SURFACE ( 'NONE', #230, 7.000000000000000000 ) ;
#64 = CARTESIAN_POINT ( 'NONE',  ( 0.000000000000000000, 0.000000000000000000, 5.000000000000000000 ) ) ;
#65 = ORIENTED_EDGE ( 'NONE', *, *, #250, .F. ) ;
#66 = VERTEX_POINT ( 'NONE', #116 ) ;
#67 = CARTESIAN_POINT ( 'NONE',  ( 0.000000000000000000, 0.000000000000000000, 0.000000000000000000 ) ) ;
#68 = ORIENTED_EDGE ( 'NONE', *, *, #52, .F. ) ;
#69 = CARTESIAN_POINT ( 'NONE',  ( 4.250000000000000000, 5.204748896376250699E-16, 5.000000000000000000 ) ) ;
#70 = LOCAL_TIME ( 13, 53, 25.00000000000000000, #158 ) ;
#71 = VERTEX_POINT ( 'NONE', #25 ) ;
#72 = AXIS2_PLACEMENT_3D ( 'NONE', #97, #180, #61 ) ;
#73 = CC_DESIGN_PERSON_AND_ORGANIZATION_ASSIGNMENT ( #195, #53, ( #171 ) ) ;
#74 =( NAMED_UNIT ( * ) SI_UNIT ( $, .STERADIAN. ) SOLID_ANGLE_UNIT ( ) );
#75 = DIRECTION ( 'NONE',  ( -1.000000000000000000, 0.000000000000000000, 0.000000000000000000 ) ) ;
#76 = CALENDAR_DATE ( 2023, 13, 2 ) ;
#77 = CIRCLE ( 'NONE', #134, 4.250000000000000000 ) ;
#78 = CC_DESIGN_DATE_AND_TIME_ASSIGNMENT ( #193, #214, ( #255 ) ) ;
#79 = DIRECTION ( 'NONE',  ( 0.000000000000000000, 0.000000000000000000, 1.000000000000000000 ) ) ;
#80 = EDGE_CURVE ( 'NONE', #82, #221, #172, .T. ) ;
#81 = CALENDAR_DATE ( 2023, 13, 2 ) ;
#82 = VERTEX_POINT ( 'NONE', #216 ) ;
#83 = ORIENTED_EDGE ( 'NONE', *, *, #52, .T. ) ;
#84 = DIRECTION ( 'NONE',  ( 1.000000000000000000, 0.000000000000000000, 0.000000000000000000 ) ) ;
#85 = DIRECTION ( 'NONE',  ( -1.000000000000000000, 0.000000000000000000, 0.000000000000000000 ) ) ;
#86 = EDGE_LOOP ( 'NONE', ( #11, #28 ) ) ;
#87 = AXIS2_PLACEMENT_3D ( 'NONE', #136, #20, #5 ) ;
#88 = DIRECTION ( 'NONE',  ( -0.000000000000000000, -0.000000000000000000, -1.000000000000000000 ) ) ;
#89 = CIRCLE ( 'NONE', #126, 4.250000000000000000 ) ;
#90 = DATE_AND_TIME ( #129, #152 ) ;
#91 = PERSON_AND_ORGANIZATION ( #242, #145 ) ;
#92 = APPROVAL ( #177, 'NEURÈENÝ' ) ;
#93 = PERSON_AND_ORGANIZATION ( #242, #145 ) ;
#94 = APPROVAL_STATUS ( 'not_yet_approved' ) ;
#95 = APPROVAL ( #94, 'NEURÈENÝ' ) ;
#96 = CARTESIAN_POINT ( 'NONE',  ( -7.000000000000000000, 0.000000000000000000, 5.000000000000000000 ) ) ;
#97 = CARTESIAN_POINT ( 'NONE',  ( 0.000000000000000000, 0.000000000000000000, 5.000000000000000000 ) ) ;
#98 = DIRECTION ( 'NONE',  ( 0.000000000000000000, 0.000000000000000000, 1.000000000000000000 ) ) ;
#99 = SHAPE_DEFINITION_REPRESENTATION ( #122, #125 ) ;
#100 = DIRECTION ( 'NONE',  ( 1.000000000000000000, 0.000000000000000000, 0.000000000000000000 ) ) ;
#101 = CIRCLE ( 'NONE', #251, 4.250000000000000000 ) ;
#102 = CARTESIAN_POINT ( 'NONE',  ( -7.000000000000000000, 0.000000000000000000, 0.000000000000000000 ) ) ;
#103 = DIRECTION ( 'NONE',  ( 1.000000000000000000, 0.000000000000000000, 0.000000000000000000 ) ) ;
#104 = DIRECTION ( 'NONE',  ( 0.000000000000000000, 0.000000000000000000, 1.000000000000000000 ) ) ;
#105 = ORIENTED_EDGE ( 'NONE', *, *, #157, .F. ) ;
#106 = VERTEX_POINT ( 'NONE', #161 ) ;
#107 = AXIS2_PLACEMENT_3D ( 'NONE', #27, #104, #149 ) ;
#108 = COORDINATED_UNIVERSAL_TIME_OFFSET ( 1, 0, .AHEAD. ) ;
#109 = CALENDAR_DATE ( 2023, 13, 2 ) ;
#110 = PLANE ( 'NONE',  #51 ) ;
#111 = PERSON_AND_ORGANIZATION ( #242, #145 ) ;
#112 = DIRECTION ( 'NONE',  ( 1.000000000000000000, 0.000000000000000000, 0.000000000000000000 ) ) ;
#113 = CARTESIAN_POINT ( 'NONE',  ( 0.000000000000000000, 0.000000000000000000, 100.0000000000000000 ) ) ;
#114 = CIRCLE ( 'NONE', #48, 4.250000000000000000 ) ;
#115 = CARTESIAN_POINT ( 'NONE',  ( 0.000000000000000000, 0.000000000000000000, 5.000000000000000000 ) ) ;
#116 = CARTESIAN_POINT ( 'NONE',  ( 7.000000000000000000, 8.572527594031473190E-16, 0.000000000000000000 ) ) ;
#117 = CYLINDRICAL_SURFACE ( 'NONE', #210, 7.000000000000000000 ) ;
#118 = LOCAL_TIME ( 13, 53, 25.00000000000000000, #57 ) ;
#119 = ORIENTED_EDGE ( 'NONE', *, *, #56, .F. ) ;
#120 = VERTEX_POINT ( 'NONE', #102 ) ;
#121 = APPLICATION_CONTEXT ( 'configuration controlled 3d designs of mechanical parts and assemblies' ) ;
#122 = PRODUCT_DEFINITION_SHAPE ( 'NONE', 'NONE',  #204 ) ;
#123 = UNCERTAINTY_MEASURE_WITH_UNIT (LENGTH_MEASURE( 1.000000000000000082E-05 ), #10, 'distance_accuracy_value', 'NONE');
#124 = ORIENTED_EDGE ( 'NONE', *, *, #223, .T. ) ;
#125 = ADVANCED_BREP_SHAPE_REPRESENTATION ( '2f62', ( #16, #213 ), #229 ) ;
#126 = AXIS2_PLACEMENT_3D ( 'NONE', #224, #47, #103 ) ;
#127 = ADVANCED_FACE ( 'NONE', ( #35 ), #39, .T. ) ;
#128 = PERSON_AND_ORGANIZATION_ROLE ( 'design_owner' ) ;
#129 = CALENDAR_DATE ( 2023, 13, 2 ) ;
#130 = CC_DESIGN_PERSON_AND_ORGANIZATION_ASSIGNMENT ( #153, #182, ( #255 ) ) ;
#131 = CLOSED_SHELL ( 'NONE', ( #127, #215, #133, #151, #176, #168, #19 ) ) ;
#132 = DIRECTION ( 'NONE',  ( 1.000000000000000000, 0.000000000000000000, 0.000000000000000000 ) ) ;
#133 = ADVANCED_FACE ( 'NONE', ( #239 ), #63, .T. ) ;
#134 = AXIS2_PLACEMENT_3D ( 'NONE', #115, #233, #84 ) ;
#135 = CARTESIAN_POINT ( 'NONE',  ( 0.000000000000000000, 0.000000000000000000, 5.000000000000000000 ) ) ;
#136 = CARTESIAN_POINT ( 'NONE',  ( 0.000000000000000000, 0.000000000000000000, 0.000000000000000000 ) ) ;
#137 = APPROVAL_ROLE ( '' ) ;
#138 = CARTESIAN_POINT ( 'NONE',  ( 0.000000000000000000, 0.000000000000000000, 100.0000000000000000 ) ) ;
#139 = DIRECTION ( 'NONE',  ( 1.000000000000000000, 0.000000000000000000, -0.000000000000000000 ) ) ;
#140 = ORIENTED_EDGE ( 'NONE', *, *, #43, .F. ) ;
#141 = ORIENTED_EDGE ( 'NONE', *, *, #148, .F. ) ;
#142 = DIRECTION ( 'NONE',  ( 1.000000000000000000, 0.000000000000000000, -0.000000000000000000 ) ) ;
#143 = EDGE_CURVE ( 'NONE', #106, #167, #160, .T. ) ;
#144 = CARTESIAN_POINT ( 'NONE',  ( -4.250000000000000000, 0.000000000000000000, 5.000000000000000000 ) ) ;
#145 = ORGANIZATION ( 'NEURÈENÝ', 'NEURÈENÝ', '' ) ;
#146 = EDGE_LOOP ( 'NONE', ( #65, #29, #45, #68 ) ) ;
#147 = FACE_OUTER_BOUND ( 'NONE', #225, .T. ) ;
#148 = EDGE_CURVE ( 'NONE', #167, #241, #114, .T. ) ;
#149 = DIRECTION ( 'NONE',  ( 1.000000000000000000, 0.000000000000000000, 0.000000000000000000 ) ) ;
#150 = AXIS2_PLACEMENT_3D ( 'NONE', #67, #208, #142 ) ;
#151 = ADVANCED_FACE ( 'NONE', ( #219, #34 ), #21, .T. ) ;
#152 = LOCAL_TIME ( 13, 53, 25.00000000000000000, #108 ) ;
#153 = PERSON_AND_ORGANIZATION ( #242, #145 ) ;
#154 = EDGE_LOOP ( 'NONE', ( #226, #141 ) ) ;
#155 = VECTOR ( 'NONE', #178, 1000.000000000000000 ) ;
#156 = CARTESIAN_POINT ( 'NONE',  ( 0.000000000000000000, 0.000000000000000000, 0.000000000000000000 ) ) ;
#157 = EDGE_CURVE ( 'NONE', #71, #106, #101, .T. ) ;
#158 = COORDINATED_UNIVERSAL_TIME_OFFSET ( 1, 0, .AHEAD. ) ;
#159 = CARTESIAN_POINT ( 'NONE',  ( -4.250000000000000000, 0.000000000000000000, 100.0000000000000000 ) ) ;
#160 = LINE ( 'NONE', #218, #155 ) ;
#161 = CARTESIAN_POINT ( 'NONE',  ( 4.250000000000000000, 5.204748896376250699E-16, 100.0000000000000000 ) ) ;
#162 = CIRCLE ( 'NONE', #107, 7.000000000000000000 ) ;
#163 = ORIENTED_EDGE ( 'NONE', *, *, #43, .T. ) ;
#164 = CC_DESIGN_PERSON_AND_ORGANIZATION_ASSIGNMENT ( #36, #232, ( #171 ) ) ;
#165 = CARTESIAN_POINT ( 'NONE',  ( 0.000000000000000000, 0.000000000000000000, 5.000000000000000000 ) ) ;
#166 = EDGE_LOOP ( 'NONE', ( #140, #247 ) ) ;
#167 = VERTEX_POINT ( 'NONE', #69 ) ;
#168 = ADVANCED_FACE ( 'NONE', ( #14 ), #186, .T. ) ;
#169 = PRODUCT ( '2f62', '2f62', '', ( #31 ) ) ;
#170 = DIRECTION ( 'NONE',  ( -1.000000000000000000, 0.000000000000000000, 0.000000000000000000 ) ) ;
#171 = PRODUCT_DEFINITION_FORMATION_WITH_SPECIFIED_SOURCE ( 'LIBOVOLNÝ', '', #169, .NOT_KNOWN. ) ;
#172 = CIRCLE ( 'NONE', #41, 7.000000000000000000 ) ;
#173 = DATE_AND_TIME ( #76, #209 ) ;
#174 = APPROVAL_ROLE ( '' ) ;
#175 = PERSON_AND_ORGANIZATION_ROLE ( 'creator' ) ;
#176 = ADVANCED_FACE ( 'NONE', ( #188 ), #243, .F. ) ;
#177 = APPROVAL_STATUS ( 'not_yet_approved' ) ;
#178 = DIRECTION ( 'NONE',  ( -0.000000000000000000, -0.000000000000000000, -1.000000000000000000 ) ) ;
#179 = DIRECTION ( 'NONE',  ( -0.000000000000000000, -0.000000000000000000, -1.000000000000000000 ) ) ;
#180 = DIRECTION ( 'NONE',  ( 0.000000000000000000, 0.000000000000000000, 1.000000000000000000 ) ) ;
#181 = LINE ( 'NONE', #96, #201 ) ;
#182 = PERSON_AND_ORGANIZATION_ROLE ( 'classification_officer' ) ;
#183 = CARTESIAN_POINT ( 'NONE',  ( 0.000000000000000000, 0.000000000000000000, 100.0000000000000000 ) ) ;
#184 = APPROVAL_PERSON_ORGANIZATION ( #91, #95, #192 ) ;
#185 = DIRECTION ( 'NONE',  ( 0.000000000000000000, 0.000000000000000000, 1.000000000000000000 ) ) ;
#186 = CYLINDRICAL_SURFACE ( 'NONE', #54, 4.250000000000000000 ) ;
#187 = EDGE_LOOP ( 'NONE', ( #42, #222 ) ) ;
#188 = FACE_OUTER_BOUND ( 'NONE', #166, .T. ) ;
#189 = PERSON_AND_ORGANIZATION ( #242, #145 ) ;
#190 = CC_DESIGN_APPROVAL ( #95, ( #171 ) ) ;
#191 = AXIS2_PLACEMENT_3D ( 'NONE', #156, #185, #100 ) ;
#192 = APPROVAL_ROLE ( '' ) ;
#193 = DATE_AND_TIME ( #109, #240 ) ;
#194 = DATE_AND_TIME ( #81, #70 ) ;
#195 = PERSON_AND_ORGANIZATION ( #242, #145 ) ;
#196 = VECTOR ( 'NONE', #237, 1000.000000000000000 ) ;
#197 = SECURITY_CLASSIFICATION_LEVEL ( 'unclassified' ) ;
#198 = FACE_OUTER_BOUND ( 'NONE', #86, .T. ) ;
#199 = CARTESIAN_POINT ( 'NONE',  ( 0.000000000000000000, 0.000000000000000000, 0.000000000000000000 ) ) ;
#200 = ORIENTED_EDGE ( 'NONE', *, *, #223, .F. ) ;
#201 = VECTOR ( 'NONE', #179, 1000.000000000000000 ) ;
#202 = ORIENTED_EDGE ( 'NONE', *, *, #238, .F. ) ;
#203 = DIRECTION ( 'NONE',  ( -0.000000000000000000, -0.000000000000000000, -1.000000000000000000 ) ) ;
#204 = PRODUCT_DEFINITION ( 'NEZNÁMÝ', '', #171, #38 ) ;
#205 = EDGE_LOOP ( 'NONE', ( #200, #202, #207, #163 ) ) ;
#206 = APPLICATION_PROTOCOL_DEFINITION ( 'international standard', 'config_control_design', 1994, #121 ) ;
#207 = ORIENTED_EDGE ( 'NONE', *, *, #56, .T. ) ;
#208 = DIRECTION ( 'NONE',  ( 0.000000000000000000, 0.000000000000000000, 1.000000000000000000 ) ) ;
#209 = LOCAL_TIME ( 13, 53, 25.00000000000000000, #15 ) ;
#210 = AXIS2_PLACEMENT_3D ( 'NONE', #165, #203, #75 ) ;
#211 = CC_DESIGN_DATE_AND_TIME_ASSIGNMENT ( #173, #254, ( #204 ) ) ;
#212 = CC_DESIGN_APPROVAL ( #92, ( #255 ) ) ;
#213 = AXIS2_PLACEMENT_3D ( 'NONE', #199, #79, #132 ) ;
#214 = DATE_TIME_ROLE ( 'classification_date' ) ;
#215 = ADVANCED_FACE ( 'NONE', ( #147 ), #117, .T. ) ;
#216 = CARTESIAN_POINT ( 'NONE',  ( 7.000000000000000000, 8.572527594031473190E-16, 5.000000000000000000 ) ) ;
#217 = APPROVAL_DATE_TIME ( #60, #92 ) ;
#218 = CARTESIAN_POINT ( 'NONE',  ( 4.250000000000000000, 5.204748896376250699E-16, 100.0000000000000000 ) ) ;
#219 = FACE_BOUND ( 'NONE', #154, .T. ) ;
#220 = LINE ( 'NONE', #159, #196 ) ;
#221 = VERTEX_POINT ( 'NONE', #30 ) ;
#222 = ORIENTED_EDGE ( 'NONE', *, *, #80, .T. ) ;
#223 = EDGE_CURVE ( 'NONE', #82, #66, #227, .T. ) ;
#224 = CARTESIAN_POINT ( 'NONE',  ( 0.000000000000000000, 0.000000000000000000, 100.0000000000000000 ) ) ;
#225 = EDGE_LOOP ( 'NONE', ( #44, #124, #46, #119 ) ) ;
#226 = ORIENTED_EDGE ( 'NONE', *, *, #17, .F. ) ;
#227 = LINE ( 'NONE', #249, #253 ) ;
#228 = APPLICATION_CONTEXT ( 'configuration controlled 3d designs of mechanical parts and assemblies' ) ;
#229 =( GEOMETRIC_REPRESENTATION_CONTEXT ( 3 ) GLOBAL_UNCERTAINTY_ASSIGNED_CONTEXT ( ( #123 ) ) GLOBAL_UNIT_ASSIGNED_CONTEXT ( ( #10, #248, #74 ) ) REPRESENTATION_CONTEXT ( 'NONE', 'WORKASPACE' ) );
#230 = AXIS2_PLACEMENT_3D ( 'NONE', #135, #3, #235 ) ;
#231 = APPLICATION_PROTOCOL_DEFINITION ( 'international standard', 'config_control_design', 1994, #228 ) ;
#232 = PERSON_AND_ORGANIZATION_ROLE ( 'creator' ) ;
#233 = DIRECTION ( 'NONE',  ( 0.000000000000000000, 0.000000000000000000, 1.000000000000000000 ) ) ;
#234 = CC_DESIGN_SECURITY_CLASSIFICATION ( #255, ( #171 ) ) ;
#235 = DIRECTION ( 'NONE',  ( -1.000000000000000000, 0.000000000000000000, 0.000000000000000000 ) ) ;
#236 = CARTESIAN_POINT ( 'NONE',  ( 0.000000000000000000, 0.000000000000000000, 5.000000000000000000 ) ) ;
#237 = DIRECTION ( 'NONE',  ( -0.000000000000000000, -0.000000000000000000, -1.000000000000000000 ) ) ;
#238 = EDGE_CURVE ( 'NONE', #221, #82, #162, .T. ) ;
#239 = FACE_OUTER_BOUND ( 'NONE', #205, .T. ) ;
#240 = LOCAL_TIME ( 13, 53, 25.00000000000000000, #32 ) ;
#241 = VERTEX_POINT ( 'NONE', #144 ) ;
#242 = PERSON ( 'NEURÈENÝ', 'NEURÈENÝ', 'NEURÈENÝ', ('NEURÈENÝ'), ('NEURÈENÝ'), ('NEURÈENÝ') ) ;
#243 = PLANE ( 'NONE',  #150 ) ;
#244 = CC_DESIGN_PERSON_AND_ORGANIZATION_ASSIGNMENT ( #189, #175, ( #204 ) ) ;
#245 = ORIENTED_EDGE ( 'NONE', *, *, #17, .T. ) ;
#246 = DIRECTION ( 'NONE',  ( -0.000000000000000000, -0.000000000000000000, -1.000000000000000000 ) ) ;
#247 = ORIENTED_EDGE ( 'NONE', *, *, #13, .F. ) ;
#248 =( NAMED_UNIT ( * ) PLANE_ANGLE_UNIT ( ) SI_UNIT ( $, .RADIAN. ) );
#249 = CARTESIAN_POINT ( 'NONE',  ( 7.000000000000000000, 8.572527594031473190E-16, 5.000000000000000000 ) ) ;
#250 = EDGE_CURVE ( 'NONE', #106, #71, #89, .T. ) ;
#251 = AXIS2_PLACEMENT_3D ( 'NONE', #138, #37, #112 ) ;
#252 = APPROVAL_STATUS ( 'not_yet_approved' ) ;
#253 = VECTOR ( 'NONE', #246, 1000.000000000000000 ) ;
#254 = DATE_TIME_ROLE ( 'creation_date' ) ;
#255 = SECURITY_CLASSIFICATION ( '', '', #197 ) ;
ENDSEC;
END-ISO-10303-21;
