ISO-10303-21;
HEADER;
FILE_DESCRIPTION (( 'STEP AP203' ),
    '1' );
FILE_NAME ('1372.STEP',
    '2023-02-13T11:12:40',
    ( '' ),
    ( '' ),
    'SwSTEP 2.0',
    'SolidWorks 2019',
    '' );
FILE_SCHEMA (( 'CONFIG_CONTROL_DESIGN' ));
ENDSEC;

DATA;
#1 = APPLICATION_PROTOCOL_DEFINITION ( 'international standard', 'config_control_design', 1994, #246 ) ;
#2 = AXIS2_PLACEMENT_3D ( 'NONE', #123, #19, #3 ) ;
#3 = DIRECTION ( 'NONE',  ( -1.000000000000000000, 0.000000000000000000, 0.000000000000000000 ) ) ;
#4 = CALENDAR_DATE ( 2023, 13, 2 ) ;
#5 = CIRCLE ( 'NONE', #122, 8.000000000000000000 ) ;
#6 = DATE_TIME_ROLE ( 'creation_date' ) ;
#7 = APPROVAL_DATE_TIME ( #71, #235 ) ;
#8 = LOCAL_TIME ( 12, 12, 40.00000000000000000, #189 ) ;
#9 = FACE_OUTER_BOUND ( 'NONE', #36, .T. ) ;
#10 = ORIENTED_EDGE ( 'NONE', *, *, #67, .F. ) ;
#11 = ORIENTED_EDGE ( 'NONE', *, *, #48, .T. ) ;
#12 = CIRCLE ( 'NONE', #54, 5.250000000000000888 ) ;
#13 = VERTEX_POINT ( 'NONE', #133 ) ;
#14 = DIRECTION ( 'NONE',  ( 1.000000000000000000, 0.000000000000000000, 0.000000000000000000 ) ) ;
#15 = PRODUCT_DEFINITION ( 'NEZNÁMÝ', '', #131, #113 ) ;
#16 = PRODUCT ( '1372', '1372', '', ( #23 ) ) ;
#17 = DIRECTION ( 'NONE',  ( -0.000000000000000000, -0.000000000000000000, -1.000000000000000000 ) ) ;
#18 = CARTESIAN_POINT ( 'NONE',  ( 8.000000000000000000, 9.797174393178825657E-16, 5.000000000000000000 ) ) ;
#19 = DIRECTION ( 'NONE',  ( -0.000000000000000000, -0.000000000000000000, -1.000000000000000000 ) ) ;
#20 = DIRECTION ( 'NONE',  ( 1.000000000000000000, 0.000000000000000000, 0.000000000000000000 ) ) ;
#21 = LOCAL_TIME ( 12, 12, 40.00000000000000000, #130 ) ;
#22 = VECTOR ( 'NONE', #17, 1000.000000000000000 ) ;
#23 = MECHANICAL_CONTEXT ( 'NONE', #246, 'mechanical' ) ;
#24 = PERSON_AND_ORGANIZATION ( #125, #28 ) ;
#25 = ORIENTED_EDGE ( 'NONE', *, *, #67, .T. ) ;
#26 = CALENDAR_DATE ( 2023, 13, 2 ) ;
#27 = CLOSED_SHELL ( 'NONE', ( #182, #241, #206, #64, #46, #136, #35 ) ) ;
#28 = ORGANIZATION ( 'NEURÈENÝ', 'NEURÈENÝ', '' ) ;
#29 = APPROVAL ( #203, 'NEURÈENÝ' ) ;
#30 = APPROVAL_ROLE ( '' ) ;
#31 = ORIENTED_EDGE ( 'NONE', *, *, #59, .T. ) ;
#32 = APPROVAL_ROLE ( '' ) ;
#33 = DIRECTION ( 'NONE',  ( 0.000000000000000000, 0.000000000000000000, 1.000000000000000000 ) ) ;
#34 = DIRECTION ( 'NONE',  ( 1.000000000000000000, 0.000000000000000000, -0.000000000000000000 ) ) ;
#35 = ADVANCED_FACE ( 'NONE', ( #192 ), #210, .T. ) ;
#36 = EDGE_LOOP ( 'NONE', ( #31, #249 ) ) ;
#37 = ADVANCED_BREP_SHAPE_REPRESENTATION ( '1372', ( #107, #84 ), #61 ) ;
#38 = CARTESIAN_POINT ( 'NONE',  ( 0.000000000000000000, 0.000000000000000000, 5.000000000000000000 ) ) ;
#39 = LOCAL_TIME ( 12, 12, 40.00000000000000000, #205 ) ;
#40 = CC_DESIGN_PERSON_AND_ORGANIZATION_ASSIGNMENT ( #218, #47, ( #201 ) ) ;
#41 = EDGE_LOOP ( 'NONE', ( #248, #160, #158, #222 ) ) ;
#42 = CARTESIAN_POINT ( 'NONE',  ( 0.000000000000000000, 0.000000000000000000, 5.000000000000000000 ) ) ;
#43 = CYLINDRICAL_SURFACE ( 'NONE', #44, 5.250000000000000888 ) ;
#44 = AXIS2_PLACEMENT_3D ( 'NONE', #105, #83, #234 ) ;
#45 = LINE ( 'NONE', #253, #245 ) ;
#46 = ADVANCED_FACE ( 'NONE', ( #138 ), #137, .F. ) ;
#47 = PERSON_AND_ORGANIZATION_ROLE ( 'classification_officer' ) ;
#48 = EDGE_CURVE ( 'NONE', #195, #226, #167, .T. ) ;
#49 = ORIENTED_EDGE ( 'NONE', *, *, #94, .T. ) ;
#50 = DATE_TIME_ROLE ( 'classification_date' ) ;
#51 = ORIENTED_EDGE ( 'NONE', *, *, #255, .T. ) ;
#52 = EDGE_CURVE ( 'NONE', #195, #13, #93, .T. ) ;
#53 = APPROVAL_STATUS ( 'not_yet_approved' ) ;
#54 = AXIS2_PLACEMENT_3D ( 'NONE', #165, #103, #101 ) ;
#55 = PERSON_AND_ORGANIZATION ( #125, #28 ) ;
#56 = ORIENTED_EDGE ( 'NONE', *, *, #132, .T. ) ;
#57 = DIRECTION ( 'NONE',  ( 0.000000000000000000, 0.000000000000000000, 1.000000000000000000 ) ) ;
#58 = ORIENTED_EDGE ( 'NONE', *, *, #255, .F. ) ;
#59 = EDGE_CURVE ( 'NONE', #74, #114, #184, .T. ) ;
#60 = VERTEX_POINT ( 'NONE', #98 ) ;
#61 =( GEOMETRIC_REPRESENTATION_CONTEXT ( 3 ) GLOBAL_UNCERTAINTY_ASSIGNED_CONTEXT ( ( #153 ) ) GLOBAL_UNIT_ASSIGNED_CONTEXT ( ( #254, #162, #216 ) ) REPRESENTATION_CONTEXT ( 'NONE', 'WORKASPACE' ) );
#62 = DIRECTION ( 'NONE',  ( 1.000000000000000000, 0.000000000000000000, 0.000000000000000000 ) ) ;
#63 = LINE ( 'NONE', #143, #151 ) ;
#64 = ADVANCED_FACE ( 'NONE', ( #251, #9 ), #111, .T. ) ;
#65 = CIRCLE ( 'NONE', #207, 8.000000000000000000 ) ;
#66 = DIRECTION ( 'NONE',  ( -0.000000000000000000, -0.000000000000000000, -1.000000000000000000 ) ) ;
#67 = EDGE_CURVE ( 'NONE', #60, #13, #240, .T. ) ;
#68 = PERSON_AND_ORGANIZATION ( #125, #28 ) ;
#69 = DATE_AND_TIME ( #4, #21 ) ;
#70 = CC_DESIGN_PERSON_AND_ORGANIZATION_ASSIGNMENT ( #55, #204, ( #131 ) ) ;
#71 = DATE_AND_TIME ( #26, #39 ) ;
#72 = AXIS2_PLACEMENT_3D ( 'NONE', #91, #212, #172 ) ;
#73 = CC_DESIGN_PERSON_AND_ORGANIZATION_ASSIGNMENT ( #146, #219, ( #131 ) ) ;
#74 = VERTEX_POINT ( 'NONE', #173 ) ;
#75 = CARTESIAN_POINT ( 'NONE',  ( 0.000000000000000000, 0.000000000000000000, 0.000000000000000000 ) ) ;
#76 = AXIS2_PLACEMENT_3D ( 'NONE', #196, #33, #34 ) ;
#77 = DIRECTION ( 'NONE',  ( 1.000000000000000000, 0.000000000000000000, -0.000000000000000000 ) ) ;
#78 = ORIENTED_EDGE ( 'NONE', *, *, #59, .F. ) ;
#79 = CARTESIAN_POINT ( 'NONE',  ( 0.000000000000000000, 0.000000000000000000, 5.000000000000000000 ) ) ;
#80 = FACE_OUTER_BOUND ( 'NONE', #41, .T. ) ;
#81 = EDGE_CURVE ( 'NONE', #194, #112, #65, .T. ) ;
#82 = FACE_OUTER_BOUND ( 'NONE', #95, .T. ) ;
#83 = DIRECTION ( 'NONE',  ( -0.000000000000000000, -0.000000000000000000, -1.000000000000000000 ) ) ;
#84 = AXIS2_PLACEMENT_3D ( 'NONE', #147, #242, #148 ) ;
#85 = CARTESIAN_POINT ( 'NONE',  ( 0.000000000000000000, 0.000000000000000000, 5.000000000000000000 ) ) ;
#86 = APPROVAL_ROLE ( '' ) ;
#87 = DATE_AND_TIME ( #149, #141 ) ;
#88 = CC_DESIGN_APPROVAL ( #178, ( #15 ) ) ;
#89 = EDGE_CURVE ( 'NONE', #112, #194, #104, .T. ) ;
#90 = DATE_AND_TIME ( #208, #8 ) ;
#91 = CARTESIAN_POINT ( 'NONE',  ( 0.000000000000000000, 0.000000000000000000, 5.000000000000000000 ) ) ;
#92 = APPLICATION_CONTEXT ( 'configuration controlled 3d designs of mechanical parts and assemblies' ) ;
#93 = LINE ( 'NONE', #229, #175 ) ;
#94 = EDGE_CURVE ( 'NONE', #226, #60, #45, .T. ) ;
#95 = EDGE_LOOP ( 'NONE', ( #250, #56, #231, #58 ) ) ;
#96 = AXIS2_PLACEMENT_3D ( 'NONE', #197, #161, #99 ) ;
#97 = EDGE_LOOP ( 'NONE', ( #134, #78, #51, #118 ) ) ;
#98 = CARTESIAN_POINT ( 'NONE',  ( 5.250000000000000888, 6.429395695523605139E-16, 5.000000000000000000 ) ) ;
#99 = DIRECTION ( 'NONE',  ( -1.000000000000000000, 0.000000000000000000, 0.000000000000000000 ) ) ;
#100 = AXIS2_PLACEMENT_3D ( 'NONE', #193, #159, #179 ) ;
#101 = DIRECTION ( 'NONE',  ( 1.000000000000000000, 0.000000000000000000, 0.000000000000000000 ) ) ;
#102 = CARTESIAN_POINT ( 'NONE',  ( 8.000000000000000000, 9.797174393178825657E-16, 5.000000000000000000 ) ) ;
#103 = DIRECTION ( 'NONE',  ( 0.000000000000000000, 0.000000000000000000, 1.000000000000000000 ) ) ;
#104 = CIRCLE ( 'NONE', #171, 8.000000000000000000 ) ;
#105 = CARTESIAN_POINT ( 'NONE',  ( 0.000000000000000000, 0.000000000000000000, 125.0000000000000000 ) ) ;
#106 = DATE_AND_TIME ( #127, #227 ) ;
#107 = MANIFOLD_SOLID_BREP ( 'Pøidat vysunutím3', #27 ) ;
#108 = SECURITY_CLASSIFICATION_LEVEL ( 'unclassified' ) ;
#109 = ORIENTED_EDGE ( 'NONE', *, *, #124, .F. ) ;
#110 = PERSON_AND_ORGANIZATION ( #125, #28 ) ;
#111 = PLANE ( 'NONE',  #72 ) ;
#112 = VERTEX_POINT ( 'NONE', #126 ) ;
#113 = DESIGN_CONTEXT ( 'detailed design', #92, 'design' ) ;
#114 = VERTEX_POINT ( 'NONE', #102 ) ;
#115 = CC_DESIGN_PERSON_AND_ORGANIZATION_ASSIGNMENT ( #129, #170, ( #16 ) ) ;
#116 = DIRECTION ( 'NONE',  ( 0.000000000000000000, 0.000000000000000000, 1.000000000000000000 ) ) ;
#117 = CC_DESIGN_APPROVAL ( #235, ( #131 ) ) ;
#118 = ORIENTED_EDGE ( 'NONE', *, *, #89, .T. ) ;
#119 = DIRECTION ( 'NONE',  ( 0.000000000000000000, 0.000000000000000000, 1.000000000000000000 ) ) ;
#120 = CC_DESIGN_PERSON_AND_ORGANIZATION_ASSIGNMENT ( #110, #237, ( #15 ) ) ;
#121 = DIRECTION ( 'NONE',  ( -0.000000000000000000, -0.000000000000000000, -1.000000000000000000 ) ) ;
#122 = AXIS2_PLACEMENT_3D ( 'NONE', #85, #252, #142 ) ;
#123 = CARTESIAN_POINT ( 'NONE',  ( 0.000000000000000000, 0.000000000000000000, 5.000000000000000000 ) ) ;
#124 = EDGE_CURVE ( 'NONE', #226, #195, #140, .T. ) ;
#125 = PERSON ( 'NEURÈENÝ', 'NEURÈENÝ', 'NEURÈENÝ', ('NEURÈENÝ'), ('NEURÈENÝ'), ('NEURÈENÝ') ) ;
#126 = CARTESIAN_POINT ( 'NONE',  ( -8.000000000000000000, 0.000000000000000000, 0.000000000000000000 ) ) ;
#127 = CALENDAR_DATE ( 2023, 13, 2 ) ;
#128 = ORIENTED_EDGE ( 'NONE', *, *, #81, .F. ) ;
#129 = PERSON_AND_ORGANIZATION ( #125, #28 ) ;
#130 = COORDINATED_UNIVERSAL_TIME_OFFSET ( 1, 0, .AHEAD. ) ;
#131 = PRODUCT_DEFINITION_FORMATION_WITH_SPECIFIED_SOURCE ( 'LIBOVOLNÝ', '', #16, .NOT_KNOWN. ) ;
#132 = EDGE_CURVE ( 'NONE', #114, #194, #198, .T. ) ;
#133 = CARTESIAN_POINT ( 'NONE',  ( -5.250000000000000888, 0.000000000000000000, 5.000000000000000000 ) ) ;
#134 = ORIENTED_EDGE ( 'NONE', *, *, #132, .F. ) ;
#135 = DIRECTION ( 'NONE',  ( 1.000000000000000000, 0.000000000000000000, 0.000000000000000000 ) ) ;
#136 = ADVANCED_FACE ( 'NONE', ( #80 ), #43, .T. ) ;
#137 = PLANE ( 'NONE',  #150 ) ;
#138 = FACE_OUTER_BOUND ( 'NONE', #239, .T. ) ;
#139 = APPROVAL_PERSON_ORGANIZATION ( #24, #29, #86 ) ;
#140 = CIRCLE ( 'NONE', #202, 5.250000000000000888 ) ;
#141 = LOCAL_TIME ( 12, 12, 40.00000000000000000, #166 ) ;
#142 = DIRECTION ( 'NONE',  ( 1.000000000000000000, 0.000000000000000000, 0.000000000000000000 ) ) ;
#143 = CARTESIAN_POINT ( 'NONE',  ( -8.000000000000000000, 0.000000000000000000, 5.000000000000000000 ) ) ;
#144 = CARTESIAN_POINT ( 'NONE',  ( 0.000000000000000000, 0.000000000000000000, 0.000000000000000000 ) ) ;
#145 = DIRECTION ( 'NONE',  ( 0.000000000000000000, 0.000000000000000000, 1.000000000000000000 ) ) ;
#146 = PERSON_AND_ORGANIZATION ( #125, #28 ) ;
#147 = CARTESIAN_POINT ( 'NONE',  ( 0.000000000000000000, 0.000000000000000000, 0.000000000000000000 ) ) ;
#148 = DIRECTION ( 'NONE',  ( 1.000000000000000000, 0.000000000000000000, 0.000000000000000000 ) ) ;
#149 = CALENDAR_DATE ( 2023, 13, 2 ) ;
#150 = AXIS2_PLACEMENT_3D ( 'NONE', #213, #230, #77 ) ;
#151 = VECTOR ( 'NONE', #121, 1000.000000000000000 ) ;
#152 = ORIENTED_EDGE ( 'NONE', *, *, #223, .F. ) ;
#153 = UNCERTAINTY_MEASURE_WITH_UNIT (LENGTH_MEASURE( 1.000000000000000082E-05 ), #254, 'distance_accuracy_value', 'NONE');
#154 = ORIENTED_EDGE ( 'NONE', *, *, #52, .F. ) ;
#155 = PRODUCT_RELATED_PRODUCT_CATEGORY ( 'detail', '', ( #16 ) ) ;
#156 = AXIS2_PLACEMENT_3D ( 'NONE', #79, #209, #14 ) ;
#157 = CC_DESIGN_APPROVAL ( #29, ( #201 ) ) ;
#158 = ORIENTED_EDGE ( 'NONE', *, *, #52, .T. ) ;
#159 = DIRECTION ( 'NONE',  ( 0.000000000000000000, 0.000000000000000000, 1.000000000000000000 ) ) ;
#160 = ORIENTED_EDGE ( 'NONE', *, *, #48, .F. ) ;
#161 = DIRECTION ( 'NONE',  ( -0.000000000000000000, -0.000000000000000000, -1.000000000000000000 ) ) ;
#162 =( NAMED_UNIT ( * ) PLANE_ANGLE_UNIT ( ) SI_UNIT ( $, .RADIAN. ) );
#163 = EDGE_CURVE ( 'NONE', #114, #74, #5, .T. ) ;
#164 = CYLINDRICAL_SURFACE ( 'NONE', #2, 8.000000000000000000 ) ;
#165 = CARTESIAN_POINT ( 'NONE',  ( 0.000000000000000000, 0.000000000000000000, 5.000000000000000000 ) ) ;
#166 = COORDINATED_UNIVERSAL_TIME_OFFSET ( 1, 0, .AHEAD. ) ;
#167 = CIRCLE ( 'NONE', #100, 5.250000000000000888 ) ;
#168 = APPROVAL_DATE_TIME ( #69, #29 ) ;
#169 = CC_DESIGN_DATE_AND_TIME_ASSIGNMENT ( #87, #6, ( #15 ) ) ;
#170 = PERSON_AND_ORGANIZATION_ROLE ( 'design_owner' ) ;
#171 = AXIS2_PLACEMENT_3D ( 'NONE', #144, #119, #62 ) ;
#172 = DIRECTION ( 'NONE',  ( 1.000000000000000000, 0.000000000000000000, -0.000000000000000000 ) ) ;
#173 = CARTESIAN_POINT ( 'NONE',  ( -8.000000000000000000, 0.000000000000000000, 5.000000000000000000 ) ) ;
#174 = EDGE_LOOP ( 'NONE', ( #152, #10 ) ) ;
#175 = VECTOR ( 'NONE', #228, 1000.000000000000000 ) ;
#176 = APPROVAL_PERSON_ORGANIZATION ( #68, #235, #30 ) ;
#177 = ORIENTED_EDGE ( 'NONE', *, *, #124, .T. ) ;
#178 = APPROVAL ( #53, 'NEURÈENÝ' ) ;
#179 = DIRECTION ( 'NONE',  ( 1.000000000000000000, 0.000000000000000000, 0.000000000000000000 ) ) ;
#180 = CARTESIAN_POINT ( 'NONE',  ( 0.000000000000000000, 0.000000000000000000, 125.0000000000000000 ) ) ;
#181 = CARTESIAN_POINT ( 'NONE',  ( 5.250000000000000888, 6.429395695523605139E-16, 125.0000000000000000 ) ) ;
#182 = ADVANCED_FACE ( 'NONE', ( #185 ), #183, .T. ) ;
#183 = CYLINDRICAL_SURFACE ( 'NONE', #96, 5.250000000000000888 ) ;
#184 = CIRCLE ( 'NONE', #156, 8.000000000000000000 ) ;
#185 = FACE_OUTER_BOUND ( 'NONE', #211, .T. ) ;
#186 = CC_DESIGN_DATE_AND_TIME_ASSIGNMENT ( #106, #50, ( #201 ) ) ;
#187 = PERSON_AND_ORGANIZATION ( #125, #28 ) ;
#188 = APPLICATION_PROTOCOL_DEFINITION ( 'international standard', 'config_control_design', 1994, #92 ) ;
#189 = COORDINATED_UNIVERSAL_TIME_OFFSET ( 1, 0, .AHEAD. ) ;
#190 = ORIENTED_EDGE ( 'NONE', *, *, #89, .F. ) ;
#191 = CC_DESIGN_SECURITY_CLASSIFICATION ( #201, ( #131 ) ) ;
#192 = FACE_OUTER_BOUND ( 'NONE', #220, .T. ) ;
#193 = CARTESIAN_POINT ( 'NONE',  ( 0.000000000000000000, 0.000000000000000000, 125.0000000000000000 ) ) ;
#194 = VERTEX_POINT ( 'NONE', #200 ) ;
#195 = VERTEX_POINT ( 'NONE', #217 ) ;
#196 = CARTESIAN_POINT ( 'NONE',  ( 0.000000000000000000, 0.000000000000000000, 125.0000000000000000 ) ) ;
#197 = CARTESIAN_POINT ( 'NONE',  ( 0.000000000000000000, 0.000000000000000000, 125.0000000000000000 ) ) ;
#198 = LINE ( 'NONE', #18, #22 ) ;
#199 = DIRECTION ( 'NONE',  ( -1.000000000000000000, 0.000000000000000000, 0.000000000000000000 ) ) ;
#200 = CARTESIAN_POINT ( 'NONE',  ( 8.000000000000000000, 9.797174393178825657E-16, 0.000000000000000000 ) ) ;
#201 = SECURITY_CLASSIFICATION ( '', '', #108 ) ;
#202 = AXIS2_PLACEMENT_3D ( 'NONE', #180, #145, #20 ) ;
#203 = APPROVAL_STATUS ( 'not_yet_approved' ) ;
#204 = PERSON_AND_ORGANIZATION_ROLE ( 'creator' ) ;
#205 = COORDINATED_UNIVERSAL_TIME_OFFSET ( 1, 0, .AHEAD. ) ;
#206 = ADVANCED_FACE ( 'NONE', ( #215 ), #164, .T. ) ;
#207 = AXIS2_PLACEMENT_3D ( 'NONE', #75, #57, #135 ) ;
#208 = CALENDAR_DATE ( 2023, 13, 2 ) ;
#209 = DIRECTION ( 'NONE',  ( 0.000000000000000000, 0.000000000000000000, 1.000000000000000000 ) ) ;
#210 = PLANE ( 'NONE',  #76 ) ;
#211 = EDGE_LOOP ( 'NONE', ( #109, #49, #25, #154 ) ) ;
#212 = DIRECTION ( 'NONE',  ( 0.000000000000000000, 0.000000000000000000, 1.000000000000000000 ) ) ;
#213 = CARTESIAN_POINT ( 'NONE',  ( 0.000000000000000000, 0.000000000000000000, 0.000000000000000000 ) ) ;
#214 = AXIS2_PLACEMENT_3D ( 'NONE', #38, #116, #247 ) ;
#215 = FACE_OUTER_BOUND ( 'NONE', #97, .T. ) ;
#216 =( NAMED_UNIT ( * ) SI_UNIT ( $, .STERADIAN. ) SOLID_ANGLE_UNIT ( ) );
#217 = CARTESIAN_POINT ( 'NONE',  ( -5.250000000000000888, 0.000000000000000000, 125.0000000000000000 ) ) ;
#218 = PERSON_AND_ORGANIZATION ( #125, #28 ) ;
#219 = PERSON_AND_ORGANIZATION_ROLE ( 'design_supplier' ) ;
#220 = EDGE_LOOP ( 'NONE', ( #11, #177 ) ) ;
#221 = COORDINATED_UNIVERSAL_TIME_OFFSET ( 1, 0, .AHEAD. ) ;
#222 = ORIENTED_EDGE ( 'NONE', *, *, #223, .T. ) ;
#223 = EDGE_CURVE ( 'NONE', #13, #60, #12, .T. ) ;
#224 = APPROVAL_PERSON_ORGANIZATION ( #187, #178, #32 ) ;
#225 = APPROVAL_DATE_TIME ( #90, #178 ) ;
#226 = VERTEX_POINT ( 'NONE', #181 ) ;
#227 = LOCAL_TIME ( 12, 12, 40.00000000000000000, #221 ) ;
#228 = DIRECTION ( 'NONE',  ( -0.000000000000000000, -0.000000000000000000, -1.000000000000000000 ) ) ;
#229 = CARTESIAN_POINT ( 'NONE',  ( -5.250000000000000888, 0.000000000000000000, 125.0000000000000000 ) ) ;
#230 = DIRECTION ( 'NONE',  ( 0.000000000000000000, 0.000000000000000000, 1.000000000000000000 ) ) ;
#231 = ORIENTED_EDGE ( 'NONE', *, *, #81, .T. ) ;
#232 = PRODUCT_DEFINITION_SHAPE ( 'NONE', 'NONE',  #15 ) ;
#233 = DIRECTION ( 'NONE',  ( -0.000000000000000000, -0.000000000000000000, -1.000000000000000000 ) ) ;
#234 = DIRECTION ( 'NONE',  ( -1.000000000000000000, 0.000000000000000000, 0.000000000000000000 ) ) ;
#235 = APPROVAL ( #243, 'NEURÈENÝ' ) ;
#236 = CYLINDRICAL_SURFACE ( 'NONE', #244, 8.000000000000000000 ) ;
#237 = PERSON_AND_ORGANIZATION_ROLE ( 'creator' ) ;
#238 = SHAPE_DEFINITION_REPRESENTATION ( #232, #37 ) ;
#239 = EDGE_LOOP ( 'NONE', ( #190, #128 ) ) ;
#240 = CIRCLE ( 'NONE', #214, 5.250000000000000888 ) ;
#241 = ADVANCED_FACE ( 'NONE', ( #82 ), #236, .T. ) ;
#242 = DIRECTION ( 'NONE',  ( 0.000000000000000000, 0.000000000000000000, 1.000000000000000000 ) ) ;
#243 = APPROVAL_STATUS ( 'not_yet_approved' ) ;
#244 = AXIS2_PLACEMENT_3D ( 'NONE', #42, #66, #199 ) ;
#245 = VECTOR ( 'NONE', #233, 1000.000000000000000 ) ;
#246 = APPLICATION_CONTEXT ( 'configuration controlled 3d designs of mechanical parts and assemblies' ) ;
#247 = DIRECTION ( 'NONE',  ( 1.000000000000000000, 0.000000000000000000, 0.000000000000000000 ) ) ;
#248 = ORIENTED_EDGE ( 'NONE', *, *, #94, .F. ) ;
#249 = ORIENTED_EDGE ( 'NONE', *, *, #163, .T. ) ;
#250 = ORIENTED_EDGE ( 'NONE', *, *, #163, .F. ) ;
#251 = FACE_BOUND ( 'NONE', #174, .T. ) ;
#252 = DIRECTION ( 'NONE',  ( 0.000000000000000000, 0.000000000000000000, 1.000000000000000000 ) ) ;
#253 = CARTESIAN_POINT ( 'NONE',  ( 5.250000000000000888, 6.429395695523605139E-16, 125.0000000000000000 ) ) ;
#254 =( LENGTH_UNIT ( ) NAMED_UNIT ( * ) SI_UNIT ( .MILLI., .METRE. ) );
#255 = EDGE_CURVE ( 'NONE', #74, #112, #63, .T. ) ;
ENDSEC;
END-ISO-10303-21;
