ISO-10303-21;
HEADER;
FILE_DESCRIPTION (( 'STEP AP203' ),
    '1' );
FILE_NAME ('24fc.STEP',
    '2023-01-31T14:33:41',
    ( '' ),
    ( '' ),
    'SwSTEP 2.0',
    'SolidWorks 2019',
    '' );
FILE_SCHEMA (( 'CONFIG_CONTROL_DESIGN' ));
ENDSEC;

DATA;
#1 = AXIS2_PLACEMENT_3D ( 'NONE', #99, #83, #9 ) ;
#2 = ORIENTED_EDGE ( 'NONE', *, *, #189, .F. ) ;
#3 = ORIENTED_EDGE ( 'NONE', *, *, #227, .F. ) ;
#4 = ADVANCED_FACE ( 'NONE', ( #128 ), #123, .T. ) ;
#5 = ORIENTED_EDGE ( 'NONE', *, *, #169, .F. ) ;
#6 = FACE_OUTER_BOUND ( 'NONE', #77, .T. ) ;
#7 = EDGE_LOOP ( 'NONE', ( #49, #80 ) ) ;
#8 = MANIFOLD_SOLID_BREP ( 'Pøidat vysunutím3', #139 ) ;
#9 = DIRECTION ( 'NONE',  ( 1.000000000000000000, 0.000000000000000000, 0.000000000000000000 ) ) ;
#10 =( NAMED_UNIT ( * ) PLANE_ANGLE_UNIT ( ) SI_UNIT ( $, .RADIAN. ) );
#11 = PERSON_AND_ORGANIZATION ( #45, #21 ) ;
#12 = CARTESIAN_POINT ( 'NONE',  ( -0.5000000000000000000, 0.000000000000000000, 100.0000000000000000 ) ) ;
#13 = FACE_BOUND ( 'NONE', #181, .T. ) ;
#14 = CARTESIAN_POINT ( 'NONE',  ( 0.5000000000000000000, 6.123233995736766036E-17, 100.0000000000000000 ) ) ;
#15 = CALENDAR_DATE ( 2023, 31, 1 ) ;
#16 = COORDINATED_UNIVERSAL_TIME_OFFSET ( 1, 0, .AHEAD. ) ;
#17 = DATE_AND_TIME ( #130, #29 ) ;
#18 = COORDINATED_UNIVERSAL_TIME_OFFSET ( 1, 0, .AHEAD. ) ;
#19 = CC_DESIGN_PERSON_AND_ORGANIZATION_ASSIGNMENT ( #175, #56, ( #132 ) ) ;
#20 = SHAPE_DEFINITION_REPRESENTATION ( #74, #126 ) ;
#21 = ORGANIZATION ( 'NEURÈENÝ', 'NEURÈENÝ', '' ) ;
#22 = VERTEX_POINT ( 'NONE', #14 ) ;
#23 = CARTESIAN_POINT ( 'NONE',  ( 0.000000000000000000, 0.000000000000000000, 0.000000000000000000 ) ) ;
#24 = DIRECTION ( 'NONE',  ( 0.000000000000000000, 0.000000000000000000, 1.000000000000000000 ) ) ;
#25 = EDGE_LOOP ( 'NONE', ( #242, #183, #62, #31 ) ) ;
#26 = ADVANCED_FACE ( 'NONE', ( #235 ), #54, .T. ) ;
#27 = AXIS2_PLACEMENT_3D ( 'NONE', #103, #188, #86 ) ;
#28 = DIRECTION ( 'NONE',  ( 1.000000000000000000, 0.000000000000000000, -0.000000000000000000 ) ) ;
#29 = LOCAL_TIME ( 15, 33, 41.00000000000000000, #18 ) ;
#30 = CC_DESIGN_DATE_AND_TIME_ASSIGNMENT ( #17, #52, ( #132 ) ) ;
#31 = ORIENTED_EDGE ( 'NONE', *, *, #189, .T. ) ;
#32 = CARTESIAN_POINT ( 'NONE',  ( -0.5000000000000000000, 0.000000000000000000, 100.0000000000000000 ) ) ;
#33 = AXIS2_PLACEMENT_3D ( 'NONE', #91, #133, #204 ) ;
#34 = EDGE_CURVE ( 'NONE', #84, #101, #89, .T. ) ;
#35 = COORDINATED_UNIVERSAL_TIME_OFFSET ( 1, 0, .AHEAD. ) ;
#36 = DIRECTION ( 'NONE',  ( 0.000000000000000000, 0.000000000000000000, 1.000000000000000000 ) ) ;
#37 = PERSON_AND_ORGANIZATION ( #45, #21 ) ;
#38 = CARTESIAN_POINT ( 'NONE',  ( 0.5000000000000000000, 6.123233995736766036E-17, 100.0000000000000000 ) ) ;
#39 = PERSON_AND_ORGANIZATION_ROLE ( 'design_owner' ) ;
#40 = DIRECTION ( 'NONE',  ( 1.000000000000000000, 0.000000000000000000, 0.000000000000000000 ) ) ;
#41 = AXIS2_PLACEMENT_3D ( 'NONE', #163, #102, #28 ) ;
#42 = COORDINATED_UNIVERSAL_TIME_OFFSET ( 1, 0, .AHEAD. ) ;
#43 = PRODUCT ( '24fc', '24fc', '', ( #243 ) ) ;
#44 = CARTESIAN_POINT ( 'NONE',  ( -1.250000000000000000, 0.000000000000000000, 1.199999999999999956 ) ) ;
#45 = PERSON ( 'NEURÈENÝ', 'NEURÈENÝ', 'NEURÈENÝ', ('NEURÈENÝ'), ('NEURÈENÝ'), ('NEURÈENÝ') ) ;
#46 = CARTESIAN_POINT ( 'NONE',  ( 0.000000000000000000, 0.000000000000000000, 1.199999999999999956 ) ) ;
#47 = CIRCLE ( 'NONE', #190, 1.250000000000000000 ) ;
#48 = AXIS2_PLACEMENT_3D ( 'NONE', #245, #187, #185 ) ;
#49 = ORIENTED_EDGE ( 'NONE', *, *, #238, .T. ) ;
#50 = CARTESIAN_POINT ( 'NONE',  ( 1.250000000000000000, 1.530808498934191571E-16, 1.199999999999999956 ) ) ;
#51 = DIRECTION ( 'NONE',  ( -0.000000000000000000, -0.000000000000000000, -1.000000000000000000 ) ) ;
#52 = DATE_TIME_ROLE ( 'creation_date' ) ;
#53 = SECURITY_CLASSIFICATION ( '', '', #113 ) ;
#54 = CYLINDRICAL_SURFACE ( 'NONE', #234, 1.250000000000000000 ) ;
#55 = EDGE_CURVE ( 'NONE', #165, #203, #241, .T. ) ;
#56 = PERSON_AND_ORGANIZATION_ROLE ( 'creator' ) ;
#57 = VECTOR ( 'NONE', #148, 1000.000000000000000 ) ;
#58 = APPROVAL_PERSON_ORGANIZATION ( #214, #85, #194 ) ;
#59 = CC_DESIGN_DATE_AND_TIME_ASSIGNMENT ( #208, #168, ( #53 ) ) ;
#60 = UNCERTAINTY_MEASURE_WITH_UNIT (LENGTH_MEASURE( 1.000000000000000082E-05 ), #229, 'distance_accuracy_value', 'NONE');
#61 = ADVANCED_FACE ( 'NONE', ( #230 ), #212, .T. ) ;
#62 = ORIENTED_EDGE ( 'NONE', *, *, #161, .T. ) ;
#63 = VECTOR ( 'NONE', #88, 1000.000000000000000 ) ;
#64 = CARTESIAN_POINT ( 'NONE',  ( 0.000000000000000000, 0.000000000000000000, 1.199999999999999956 ) ) ;
#65 = PERSON_AND_ORGANIZATION ( #45, #21 ) ;
#66 = CC_DESIGN_APPROVAL ( #222, ( #53 ) ) ;
#67 = PERSON_AND_ORGANIZATION_ROLE ( 'classification_officer' ) ;
#68 = DESIGN_CONTEXT ( 'detailed design', #218, 'design' ) ;
#69 = CARTESIAN_POINT ( 'NONE',  ( 0.000000000000000000, 0.000000000000000000, 1.199999999999999956 ) ) ;
#70 = CALENDAR_DATE ( 2023, 31, 1 ) ;
#71 = DIRECTION ( 'NONE',  ( 1.000000000000000000, 0.000000000000000000, 0.000000000000000000 ) ) ;
#72 = CC_DESIGN_APPROVAL ( #85, ( #132 ) ) ;
#73 = CARTESIAN_POINT ( 'NONE',  ( 0.000000000000000000, 0.000000000000000000, 0.000000000000000000 ) ) ;
#74 = PRODUCT_DEFINITION_SHAPE ( 'NONE', 'NONE',  #132 ) ;
#75 = CC_DESIGN_PERSON_AND_ORGANIZATION_ASSIGNMENT ( #37, #39, ( #43 ) ) ;
#76 = DIRECTION ( 'NONE',  ( 1.000000000000000000, 0.000000000000000000, 0.000000000000000000 ) ) ;
#77 = EDGE_LOOP ( 'NONE', ( #78, #95, #232, #224 ) ) ;
#78 = ORIENTED_EDGE ( 'NONE', *, *, #34, .F. ) ;
#79 = PRODUCT_DEFINITION_FORMATION_WITH_SPECIFIED_SOURCE ( 'LIBOVOLNÝ', '', #43, .NOT_KNOWN. ) ;
#80 = ORIENTED_EDGE ( 'NONE', *, *, #169, .T. ) ;
#81 = EDGE_LOOP ( 'NONE', ( #186, #98, #159, #97 ) ) ;
#82 = DIRECTION ( 'NONE',  ( 1.000000000000000000, 0.000000000000000000, 0.000000000000000000 ) ) ;
#83 = DIRECTION ( 'NONE',  ( 0.000000000000000000, 0.000000000000000000, 1.000000000000000000 ) ) ;
#84 = VERTEX_POINT ( 'NONE', #50 ) ;
#85 = APPROVAL ( #109, 'NEURÈENÝ' ) ;
#86 = DIRECTION ( 'NONE',  ( -1.000000000000000000, 0.000000000000000000, 0.000000000000000000 ) ) ;
#87 = DATE_AND_TIME ( #15, #221 ) ;
#88 = DIRECTION ( 'NONE',  ( -0.000000000000000000, -0.000000000000000000, -1.000000000000000000 ) ) ;
#89 = CIRCLE ( 'NONE', #137, 1.250000000000000000 ) ;
#90 = APPROVAL_DATE_TIME ( #111, #85 ) ;
#91 = CARTESIAN_POINT ( 'NONE',  ( 0.000000000000000000, 0.000000000000000000, 100.0000000000000000 ) ) ;
#92 = DIRECTION ( 'NONE',  ( 0.000000000000000000, 0.000000000000000000, 1.000000000000000000 ) ) ;
#93 = AXIS2_PLACEMENT_3D ( 'NONE', #147, #226, #82 ) ;
#94 = CIRCLE ( 'NONE', #117, 0.5000000000000000000 ) ;
#95 = ORIENTED_EDGE ( 'NONE', *, *, #216, .T. ) ;
#96 = DIRECTION ( 'NONE',  ( -0.000000000000000000, -0.000000000000000000, -1.000000000000000000 ) ) ;
#97 = ORIENTED_EDGE ( 'NONE', *, *, #227, .T. ) ;
#98 = ORIENTED_EDGE ( 'NONE', *, *, #238, .F. ) ;
#99 = CARTESIAN_POINT ( 'NONE',  ( 0.000000000000000000, 0.000000000000000000, 0.000000000000000000 ) ) ;
#100 = ORIENTED_EDGE ( 'NONE', *, *, #55, .F. ) ;
#101 = VERTEX_POINT ( 'NONE', #211 ) ;
#102 = DIRECTION ( 'NONE',  ( 0.000000000000000000, 0.000000000000000000, 1.000000000000000000 ) ) ;
#103 = CARTESIAN_POINT ( 'NONE',  ( 0.000000000000000000, 0.000000000000000000, 100.0000000000000000 ) ) ;
#104 = VERTEX_POINT ( 'NONE', #184 ) ;
#105 = ADVANCED_FACE ( 'NONE', ( #6 ), #166, .T. ) ;
#106 = PERSON_AND_ORGANIZATION ( #45, #21 ) ;
#107 = CARTESIAN_POINT ( 'NONE',  ( -1.250000000000000000, 0.000000000000000000, 0.000000000000000000 ) ) ;
#108 = APPROVAL_DATE_TIME ( #248, #114 ) ;
#109 = APPROVAL_STATUS ( 'not_yet_approved' ) ;
#110 = DIRECTION ( 'NONE',  ( -0.000000000000000000, -0.000000000000000000, -1.000000000000000000 ) ) ;
#111 = DATE_AND_TIME ( #70, #138 ) ;
#112 = DIRECTION ( 'NONE',  ( 0.000000000000000000, 0.000000000000000000, 1.000000000000000000 ) ) ;
#113 = SECURITY_CLASSIFICATION_LEVEL ( 'unclassified' ) ;
#114 = APPROVAL ( #174, 'NEURÈENÝ' ) ;
#115 = CARTESIAN_POINT ( 'NONE',  ( 0.000000000000000000, 0.000000000000000000, 0.000000000000000000 ) ) ;
#116 = ADVANCED_FACE ( 'NONE', ( #140 ), #219, .F. ) ;
#117 = AXIS2_PLACEMENT_3D ( 'NONE', #173, #150, #178 ) ;
#118 = CIRCLE ( 'NONE', #141, 0.5000000000000000000 ) ;
#119 = ORIENTED_EDGE ( 'NONE', *, *, #34, .T. ) ;
#120 = PLANE ( 'NONE',  #41 ) ;
#121 = EDGE_CURVE ( 'NONE', #22, #104, #134, .T. ) ;
#122 = PRODUCT_RELATED_PRODUCT_CATEGORY ( 'detail', '', ( #43 ) ) ;
#123 = CYLINDRICAL_SURFACE ( 'NONE', #27, 0.5000000000000000000 ) ;
#124 = CARTESIAN_POINT ( 'NONE',  ( 0.000000000000000000, 0.000000000000000000, 1.199999999999999956 ) ) ;
#125 = CALENDAR_DATE ( 2023, 31, 1 ) ;
#126 = ADVANCED_BREP_SHAPE_REPRESENTATION ( '24fc', ( #8, #1 ), #247 ) ;
#127 = AXIS2_PLACEMENT_3D ( 'NONE', #23, #36, #213 ) ;
#128 = FACE_OUTER_BOUND ( 'NONE', #81, .T. ) ;
#129 = LOCAL_TIME ( 15, 33, 41.00000000000000000, #153 ) ;
#130 = CALENDAR_DATE ( 2023, 31, 1 ) ;
#131 = PERSON_AND_ORGANIZATION_ROLE ( 'design_supplier' ) ;
#132 = PRODUCT_DEFINITION ( 'NEZNÁMÝ', '', #79, #68 ) ;
#133 = DIRECTION ( 'NONE',  ( -0.000000000000000000, -0.000000000000000000, -1.000000000000000000 ) ) ;
#134 = LINE ( 'NONE', #38, #160 ) ;
#135 = PERSON_AND_ORGANIZATION ( #45, #21 ) ;
#136 = LINE ( 'NONE', #44, #57 ) ;
#137 = AXIS2_PLACEMENT_3D ( 'NONE', #124, #142, #239 ) ;
#138 = LOCAL_TIME ( 15, 33, 41.00000000000000000, #42 ) ;
#139 = CLOSED_SHELL ( 'NONE', ( #61, #105, #26, #146, #116, #4, #231 ) ) ;
#140 = FACE_OUTER_BOUND ( 'NONE', #223, .T. ) ;
#141 = AXIS2_PLACEMENT_3D ( 'NONE', #197, #24, #76 ) ;
#142 = DIRECTION ( 'NONE',  ( 0.000000000000000000, 0.000000000000000000, 1.000000000000000000 ) ) ;
#143 = CC_DESIGN_PERSON_AND_ORGANIZATION_ASSIGNMENT ( #11, #191, ( #79 ) ) ;
#144 = VERTEX_POINT ( 'NONE', #249 ) ;
#145 = ORIENTED_EDGE ( 'NONE', *, *, #192, .F. ) ;
#146 = ADVANCED_FACE ( 'NONE', ( #13, #215 ), #198, .T. ) ;
#147 = CARTESIAN_POINT ( 'NONE',  ( 0.000000000000000000, 0.000000000000000000, 1.199999999999999956 ) ) ;
#148 = DIRECTION ( 'NONE',  ( -0.000000000000000000, -0.000000000000000000, -1.000000000000000000 ) ) ;
#149 = APPROVAL_STATUS ( 'not_yet_approved' ) ;
#150 = DIRECTION ( 'NONE',  ( 0.000000000000000000, 0.000000000000000000, 1.000000000000000000 ) ) ;
#151 = DIRECTION ( 'NONE',  ( 0.000000000000000000, 0.000000000000000000, 1.000000000000000000 ) ) ;
#152 = DIRECTION ( 'NONE',  ( 0.000000000000000000, 0.000000000000000000, 1.000000000000000000 ) ) ;
#153 = COORDINATED_UNIVERSAL_TIME_OFFSET ( 1, 0, .AHEAD. ) ;
#154 = VECTOR ( 'NONE', #51, 1000.000000000000000 ) ;
#155 = CARTESIAN_POINT ( 'NONE',  ( -0.5000000000000000000, 0.000000000000000000, 1.199999999999999956 ) ) ;
#156 = CC_DESIGN_PERSON_AND_ORGANIZATION_ASSIGNMENT ( #135, #131, ( #79 ) ) ;
#157 = AXIS2_PLACEMENT_3D ( 'NONE', #64, #96, #237 ) ;
#158 = AXIS2_PLACEMENT_3D ( 'NONE', #115, #92, #176 ) ;
#159 = ORIENTED_EDGE ( 'NONE', *, *, #55, .T. ) ;
#160 = VECTOR ( 'NONE', #110, 1000.000000000000000 ) ;
#161 = EDGE_CURVE ( 'NONE', #101, #164, #136, .T. ) ;
#162 = ORIENTED_EDGE ( 'NONE', *, *, #209, .F. ) ;
#163 = CARTESIAN_POINT ( 'NONE',  ( 0.000000000000000000, 0.000000000000000000, 100.0000000000000000 ) ) ;
#164 = VERTEX_POINT ( 'NONE', #107 ) ;
#165 = VERTEX_POINT ( 'NONE', #12 ) ;
#166 = CYLINDRICAL_SURFACE ( 'NONE', #157, 1.250000000000000000 ) ;
#167 = DIRECTION ( 'NONE',  ( -1.000000000000000000, 0.000000000000000000, 0.000000000000000000 ) ) ;
#168 = DATE_TIME_ROLE ( 'classification_date' ) ;
#169 = EDGE_CURVE ( 'NONE', #22, #165, #94, .T. ) ;
#170 = EDGE_LOOP ( 'NONE', ( #244, #119 ) ) ;
#171 = APPROVAL_PERSON_ORGANIZATION ( #65, #222, #233 ) ;
#172 = CALENDAR_DATE ( 2023, 31, 1 ) ;
#173 = CARTESIAN_POINT ( 'NONE',  ( 0.000000000000000000, 0.000000000000000000, 100.0000000000000000 ) ) ;
#174 = APPROVAL_STATUS ( 'not_yet_approved' ) ;
#175 = PERSON_AND_ORGANIZATION ( #45, #21 ) ;
#176 = DIRECTION ( 'NONE',  ( 1.000000000000000000, 0.000000000000000000, 0.000000000000000000 ) ) ;
#177 = CC_DESIGN_APPROVAL ( #114, ( #79 ) ) ;
#178 = DIRECTION ( 'NONE',  ( 1.000000000000000000, 0.000000000000000000, 0.000000000000000000 ) ) ;
#179 = EDGE_CURVE ( 'NONE', #101, #84, #255, .T. ) ;
#180 = CIRCLE ( 'NONE', #93, 0.5000000000000000000 ) ;
#181 = EDGE_LOOP ( 'NONE', ( #3, #162 ) ) ;
#182 = CIRCLE ( 'NONE', #158, 1.250000000000000000 ) ;
#183 = ORIENTED_EDGE ( 'NONE', *, *, #179, .F. ) ;
#184 = CARTESIAN_POINT ( 'NONE',  ( 0.5000000000000000000, 6.123233995736766036E-17, 1.199999999999999956 ) ) ;
#185 = DIRECTION ( 'NONE',  ( 1.000000000000000000, 0.000000000000000000, 0.000000000000000000 ) ) ;
#186 = ORIENTED_EDGE ( 'NONE', *, *, #121, .F. ) ;
#187 = DIRECTION ( 'NONE',  ( 0.000000000000000000, 0.000000000000000000, 1.000000000000000000 ) ) ;
#188 = DIRECTION ( 'NONE',  ( -0.000000000000000000, -0.000000000000000000, -1.000000000000000000 ) ) ;
#189 = EDGE_CURVE ( 'NONE', #164, #144, #47, .T. ) ;
#190 = AXIS2_PLACEMENT_3D ( 'NONE', #73, #112, #71 ) ;
#191 = PERSON_AND_ORGANIZATION_ROLE ( 'creator' ) ;
#192 = EDGE_CURVE ( 'NONE', #144, #164, #182, .T. ) ;
#193 = DIRECTION ( 'NONE',  ( -0.000000000000000000, -0.000000000000000000, -1.000000000000000000 ) ) ;
#194 = APPROVAL_ROLE ( '' ) ;
#195 = AXIS2_PLACEMENT_3D ( 'NONE', #69, #152, #236 ) ;
#196 = APPLICATION_PROTOCOL_DEFINITION ( 'international standard', 'config_control_design', 1994, #218 ) ;
#197 = CARTESIAN_POINT ( 'NONE',  ( 0.000000000000000000, 0.000000000000000000, 1.199999999999999956 ) ) ;
#198 = PLANE ( 'NONE',  #195 ) ;
#199 = CIRCLE ( 'NONE', #48, 0.5000000000000000000 ) ;
#200 = CC_DESIGN_PERSON_AND_ORGANIZATION_ASSIGNMENT ( #106, #67, ( #53 ) ) ;
#201 = AXIS2_PLACEMENT_3D ( 'NONE', #46, #151, #40 ) ;
#202 = LINE ( 'NONE', #217, #154 ) ;
#203 = VERTEX_POINT ( 'NONE', #155 ) ;
#204 = DIRECTION ( 'NONE',  ( -1.000000000000000000, 0.000000000000000000, 0.000000000000000000 ) ) ;
#205 = ORIENTED_EDGE ( 'NONE', *, *, #121, .T. ) ;
#206 = FACE_OUTER_BOUND ( 'NONE', #7, .T. ) ;
#207 = APPLICATION_CONTEXT ( 'configuration controlled 3d designs of mechanical parts and assemblies' ) ;
#208 = DATE_AND_TIME ( #125, #129 ) ;
#209 = EDGE_CURVE ( 'NONE', #104, #203, #118, .T. ) ;
#210 = CARTESIAN_POINT ( 'NONE',  ( 0.000000000000000000, 0.000000000000000000, 1.199999999999999956 ) ) ;
#211 = CARTESIAN_POINT ( 'NONE',  ( -1.250000000000000000, 0.000000000000000000, 1.199999999999999956 ) ) ;
#212 = CYLINDRICAL_SURFACE ( 'NONE', #33, 0.5000000000000000000 ) ;
#213 = DIRECTION ( 'NONE',  ( 1.000000000000000000, 0.000000000000000000, -0.000000000000000000 ) ) ;
#214 = PERSON_AND_ORGANIZATION ( #45, #21 ) ;
#215 = FACE_OUTER_BOUND ( 'NONE', #170, .T. ) ;
#216 = EDGE_CURVE ( 'NONE', #84, #144, #202, .T. ) ;
#217 = CARTESIAN_POINT ( 'NONE',  ( 1.250000000000000000, 1.530808498934191571E-16, 1.199999999999999956 ) ) ;
#218 = APPLICATION_CONTEXT ( 'configuration controlled 3d designs of mechanical parts and assemblies' ) ;
#219 = PLANE ( 'NONE',  #127 ) ;
#220 = APPROVAL_PERSON_ORGANIZATION ( #251, #114, #250 ) ;
#221 = LOCAL_TIME ( 15, 33, 41.00000000000000000, #35 ) ;
#222 = APPROVAL ( #149, 'NEURÈENÝ' ) ;
#223 = EDGE_LOOP ( 'NONE', ( #2, #145 ) ) ;
#224 = ORIENTED_EDGE ( 'NONE', *, *, #161, .F. ) ;
#225 = APPLICATION_PROTOCOL_DEFINITION ( 'international standard', 'config_control_design', 1994, #207 ) ;
#226 = DIRECTION ( 'NONE',  ( 0.000000000000000000, 0.000000000000000000, 1.000000000000000000 ) ) ;
#227 = EDGE_CURVE ( 'NONE', #203, #104, #180, .T. ) ;
#228 = EDGE_LOOP ( 'NONE', ( #5, #205, #240, #100 ) ) ;
#229 =( LENGTH_UNIT ( ) NAMED_UNIT ( * ) SI_UNIT ( .MILLI., .METRE. ) );
#230 = FACE_OUTER_BOUND ( 'NONE', #228, .T. ) ;
#231 = ADVANCED_FACE ( 'NONE', ( #206 ), #120, .T. ) ;
#232 = ORIENTED_EDGE ( 'NONE', *, *, #192, .T. ) ;
#233 = APPROVAL_ROLE ( '' ) ;
#234 = AXIS2_PLACEMENT_3D ( 'NONE', #210, #193, #167 ) ;
#235 = FACE_OUTER_BOUND ( 'NONE', #25, .T. ) ;
#236 = DIRECTION ( 'NONE',  ( 1.000000000000000000, 0.000000000000000000, -0.000000000000000000 ) ) ;
#237 = DIRECTION ( 'NONE',  ( -1.000000000000000000, 0.000000000000000000, 0.000000000000000000 ) ) ;
#238 = EDGE_CURVE ( 'NONE', #165, #22, #199, .T. ) ;
#239 = DIRECTION ( 'NONE',  ( 1.000000000000000000, 0.000000000000000000, 0.000000000000000000 ) ) ;
#240 = ORIENTED_EDGE ( 'NONE', *, *, #209, .T. ) ;
#241 = LINE ( 'NONE', #32, #63 ) ;
#242 = ORIENTED_EDGE ( 'NONE', *, *, #216, .F. ) ;
#243 = MECHANICAL_CONTEXT ( 'NONE', #207, 'mechanical' ) ;
#244 = ORIENTED_EDGE ( 'NONE', *, *, #179, .T. ) ;
#245 = CARTESIAN_POINT ( 'NONE',  ( 0.000000000000000000, 0.000000000000000000, 100.0000000000000000 ) ) ;
#246 =( NAMED_UNIT ( * ) SI_UNIT ( $, .STERADIAN. ) SOLID_ANGLE_UNIT ( ) );
#247 =( GEOMETRIC_REPRESENTATION_CONTEXT ( 3 ) GLOBAL_UNCERTAINTY_ASSIGNED_CONTEXT ( ( #60 ) ) GLOBAL_UNIT_ASSIGNED_CONTEXT ( ( #229, #10, #246 ) ) REPRESENTATION_CONTEXT ( 'NONE', 'WORKASPACE' ) );
#248 = DATE_AND_TIME ( #172, #252 ) ;
#249 = CARTESIAN_POINT ( 'NONE',  ( 1.250000000000000000, 1.530808498934191571E-16, 0.000000000000000000 ) ) ;
#250 = APPROVAL_ROLE ( '' ) ;
#251 = PERSON_AND_ORGANIZATION ( #45, #21 ) ;
#252 = LOCAL_TIME ( 15, 33, 41.00000000000000000, #16 ) ;
#253 = CC_DESIGN_SECURITY_CLASSIFICATION ( #53, ( #79 ) ) ;
#254 = APPROVAL_DATE_TIME ( #87, #222 ) ;
#255 = CIRCLE ( 'NONE', #201, 1.250000000000000000 ) ;
ENDSEC;
END-ISO-10303-21;
