ISO-10303-21;
HEADER;
FILE_DESCRIPTION (( 'STEP AP203' ),
    '1' );
FILE_NAME ('e053.STEP',
    '2023-02-13T13:35:47',
    ( '' ),
    ( '' ),
    'SwSTEP 2.0',
    'SolidWorks 2019',
    '' );
FILE_SCHEMA (( 'CONFIG_CONTROL_DESIGN' ));
ENDSEC;

DATA;
#1 = CIRCLE ( 'NONE', #24, 3.500000000000000000 ) ;
#2 =( NAMED_UNIT ( * ) PLANE_ANGLE_UNIT ( ) SI_UNIT ( $, .RADIAN. ) );
#3 = PERSON_AND_ORGANIZATION_ROLE ( 'design_owner' ) ;
#4 = APPROVAL ( #112, 'NEURÈENÝ' ) ;
#5 = DIRECTION ( 'NONE',  ( 1.000000000000000000, 0.000000000000000000, 0.000000000000000000 ) ) ;
#6 = PERSON_AND_ORGANIZATION_ROLE ( 'creator' ) ;
#7 = PLANE ( 'NONE',  #194 ) ;
#8 = CARTESIAN_POINT ( 'NONE',  ( 0.000000000000000000, 0.000000000000000000, 315.0000000000000000 ) ) ;
#9 = APPROVAL_STATUS ( 'not_yet_approved' ) ;
#10 = EDGE_LOOP ( 'NONE', ( #253, #45, #148, #74 ) ) ;
#11 = PERSON_AND_ORGANIZATION ( #116, #94 ) ;
#12 = CYLINDRICAL_SURFACE ( 'NONE', #21, 3.500000000000000000 ) ;
#13 = EDGE_LOOP ( 'NONE', ( #35, #76, #241, #66 ) ) ;
#14 = EDGE_CURVE ( 'NONE', #175, #161, #46, .T. ) ;
#15 = VERTEX_POINT ( 'NONE', #78 ) ;
#16 = AXIS2_PLACEMENT_3D ( 'NONE', #196, #207, #88 ) ;
#17 = CC_DESIGN_PERSON_AND_ORGANIZATION_ASSIGNMENT ( #105, #3, ( #172 ) ) ;
#18 = UNCERTAINTY_MEASURE_WITH_UNIT (LENGTH_MEASURE( 1.000000000000000082E-05 ), #182, 'distance_accuracy_value', 'NONE');
#19 = APPROVAL ( #36, 'NEURÈENÝ' ) ;
#20 = PRODUCT_DEFINITION_FORMATION_WITH_SPECIFIED_SOURCE ( 'LIBOVOLNÝ', '', #172, .NOT_KNOWN. ) ;
#21 = AXIS2_PLACEMENT_3D ( 'NONE', #91, #250, #154 ) ;
#22 = DIRECTION ( 'NONE',  ( 1.000000000000000000, 0.000000000000000000, 0.000000000000000000 ) ) ;
#23 = AXIS2_PLACEMENT_3D ( 'NONE', #149, #163, #189 ) ;
#24 = AXIS2_PLACEMENT_3D ( 'NONE', #141, #42, #22 ) ;
#25 = EDGE_LOOP ( 'NONE', ( #137, #232 ) ) ;
#26 = CARTESIAN_POINT ( 'NONE',  ( 3.500000000000000000, 4.286263797015736595E-16, 315.0000000000000000 ) ) ;
#27 = DATE_AND_TIME ( #188, #243 ) ;
#28 = ORIENTED_EDGE ( 'NONE', *, *, #218, .T. ) ;
#29 = CARTESIAN_POINT ( 'NONE',  ( -3.500000000000000000, 0.000000000000000000, 315.0000000000000000 ) ) ;
#30 = CARTESIAN_POINT ( 'NONE',  ( 0.000000000000000000, 0.000000000000000000, 0.000000000000000000 ) ) ;
#31 = MANIFOLD_SOLID_BREP ( 'Pøidat vysunutím3', #164 ) ;
#32 = CARTESIAN_POINT ( 'NONE',  ( -6.000000000000000888, 0.000000000000000000, 5.000000000000000000 ) ) ;
#33 = PERSON_AND_ORGANIZATION ( #116, #94 ) ;
#34 = FACE_OUTER_BOUND ( 'NONE', #166, .T. ) ;
#35 = ORIENTED_EDGE ( 'NONE', *, *, #210, .F. ) ;
#36 = APPROVAL_STATUS ( 'not_yet_approved' ) ;
#37 = CYLINDRICAL_SURFACE ( 'NONE', #16, 6.000000000000000888 ) ;
#38 = CALENDAR_DATE ( 2023, 13, 2 ) ;
#39 = ORIENTED_EDGE ( 'NONE', *, *, #160, .F. ) ;
#40 = APPROVAL_PERSON_ORGANIZATION ( #75, #19, #195 ) ;
#41 = AXIS2_PLACEMENT_3D ( 'NONE', #120, #142, #220 ) ;
#42 = DIRECTION ( 'NONE',  ( 0.000000000000000000, 0.000000000000000000, 1.000000000000000000 ) ) ;
#43 = CARTESIAN_POINT ( 'NONE',  ( 3.500000000000000000, 4.286263797015736595E-16, 315.0000000000000000 ) ) ;
#44 = EDGE_CURVE ( 'NONE', #161, #175, #199, .T. ) ;
#45 = ORIENTED_EDGE ( 'NONE', *, *, #210, .T. ) ;
#46 = CIRCLE ( 'NONE', #95, 6.000000000000000888 ) ;
#47 = DIRECTION ( 'NONE',  ( 0.000000000000000000, 0.000000000000000000, 1.000000000000000000 ) ) ;
#48 = DIRECTION ( 'NONE',  ( 0.000000000000000000, 0.000000000000000000, 1.000000000000000000 ) ) ;
#49 = ORIENTED_EDGE ( 'NONE', *, *, #138, .F. ) ;
#50 = CARTESIAN_POINT ( 'NONE',  ( 6.000000000000000888, 7.347880794884120722E-16, 5.000000000000000000 ) ) ;
#51 = APPROVAL_ROLE ( '' ) ;
#52 = DIRECTION ( 'NONE',  ( -0.000000000000000000, -0.000000000000000000, -1.000000000000000000 ) ) ;
#53 = FACE_OUTER_BOUND ( 'NONE', #203, .T. ) ;
#54 = PERSON_AND_ORGANIZATION ( #116, #94 ) ;
#55 = DATE_AND_TIME ( #38, #84 ) ;
#56 = ORIENTED_EDGE ( 'NONE', *, *, #139, .F. ) ;
#57 = SECURITY_CLASSIFICATION_LEVEL ( 'unclassified' ) ;
#58 = DIRECTION ( 'NONE',  ( 0.000000000000000000, 0.000000000000000000, 1.000000000000000000 ) ) ;
#59 = CC_DESIGN_DATE_AND_TIME_ASSIGNMENT ( #55, #249, ( #181 ) ) ;
#60 = APPROVAL_PERSON_ORGANIZATION ( #33, #4, #136 ) ;
#61 = CALENDAR_DATE ( 2023, 13, 2 ) ;
#62 = EDGE_LOOP ( 'NONE', ( #123, #252 ) ) ;
#63 = CYLINDRICAL_SURFACE ( 'NONE', #41, 3.500000000000000000 ) ;
#64 = ADVANCED_FACE ( 'NONE', ( #34 ), #108, .F. ) ;
#65 = ADVANCED_FACE ( 'NONE', ( #110 ), #12, .T. ) ;
#66 = ORIENTED_EDGE ( 'NONE', *, *, #206, .T. ) ;
#67 = LINE ( 'NONE', #69, #118 ) ;
#68 = DIRECTION ( 'NONE',  ( 1.000000000000000000, 0.000000000000000000, -0.000000000000000000 ) ) ;
#69 = CARTESIAN_POINT ( 'NONE',  ( -6.000000000000000888, 0.000000000000000000, 5.000000000000000000 ) ) ;
#70 = EDGE_CURVE ( 'NONE', #162, #113, #158, .T. ) ;
#71 = LINE ( 'NONE', #26, #117 ) ;
#72 = DESIGN_CONTEXT ( 'detailed design', #144, 'design' ) ;
#73 = VECTOR ( 'NONE', #205, 1000.000000000000000 ) ;
#74 = ORIENTED_EDGE ( 'NONE', *, *, #180, .F. ) ;
#75 = PERSON_AND_ORGANIZATION ( #116, #94 ) ;
#76 = ORIENTED_EDGE ( 'NONE', *, *, #44, .F. ) ;
#77 = COORDINATED_UNIVERSAL_TIME_OFFSET ( 1, 0, .AHEAD. ) ;
#78 = CARTESIAN_POINT ( 'NONE',  ( 6.000000000000000888, 7.347880794884120722E-16, 0.000000000000000000 ) ) ;
#79 = DIRECTION ( 'NONE',  ( 0.000000000000000000, 0.000000000000000000, 1.000000000000000000 ) ) ;
#80 = AXIS2_PLACEMENT_3D ( 'NONE', #121, #228, #225 ) ;
#81 = ADVANCED_FACE ( 'NONE', ( #214 ), #37, .T. ) ;
#82 = DIRECTION ( 'NONE',  ( 1.000000000000000000, 0.000000000000000000, 0.000000000000000000 ) ) ;
#83 = LINE ( 'NONE', #50, #73 ) ;
#84 = LOCAL_TIME ( 14, 35, 47.00000000000000000, #174 ) ;
#85 = CYLINDRICAL_SURFACE ( 'NONE', #23, 6.000000000000000888 ) ;
#86 = ADVANCED_FACE ( 'NONE', ( #223 ), #187, .T. ) ;
#87 = ORIENTED_EDGE ( 'NONE', *, *, #226, .F. ) ;
#88 = DIRECTION ( 'NONE',  ( -1.000000000000000000, 0.000000000000000000, 0.000000000000000000 ) ) ;
#89 = CARTESIAN_POINT ( 'NONE',  ( 0.000000000000000000, 0.000000000000000000, 0.000000000000000000 ) ) ;
#90 = COORDINATED_UNIVERSAL_TIME_OFFSET ( 1, 0, .AHEAD. ) ;
#91 = CARTESIAN_POINT ( 'NONE',  ( 0.000000000000000000, 0.000000000000000000, 315.0000000000000000 ) ) ;
#92 = EDGE_LOOP ( 'NONE', ( #39, #248, #224, #215 ) ) ;
#93 = DIRECTION ( 'NONE',  ( 0.000000000000000000, 0.000000000000000000, 1.000000000000000000 ) ) ;
#94 = ORGANIZATION ( 'NEURÈENÝ', 'NEURÈENÝ', '' ) ;
#95 = AXIS2_PLACEMENT_3D ( 'NONE', #170, #79, #115 ) ;
#96 = CC_DESIGN_PERSON_AND_ORGANIZATION_ASSIGNMENT ( #54, #132, ( #219 ) ) ;
#97 = CIRCLE ( 'NONE', #255, 3.500000000000000000 ) ;
#98 = APPLICATION_CONTEXT ( 'configuration controlled 3d designs of mechanical parts and assemblies' ) ;
#99 = FACE_OUTER_BOUND ( 'NONE', #156, .T. ) ;
#100 = DIRECTION ( 'NONE',  ( -0.000000000000000000, -0.000000000000000000, -1.000000000000000000 ) ) ;
#101 = APPROVAL_DATE_TIME ( #27, #254 ) ;
#102 = ADVANCED_FACE ( 'NONE', ( #245, #53 ), #7, .T. ) ;
#103 = CC_DESIGN_APPROVAL ( #19, ( #219 ) ) ;
#104 = CARTESIAN_POINT ( 'NONE',  ( -3.500000000000000000, 0.000000000000000000, 5.000000000000000000 ) ) ;
#105 = PERSON_AND_ORGANIZATION ( #116, #94 ) ;
#106 = CARTESIAN_POINT ( 'NONE',  ( 0.000000000000000000, 0.000000000000000000, 315.0000000000000000 ) ) ;
#107 = APPROVAL_DATE_TIME ( #197, #19 ) ;
#108 = PLANE ( 'NONE',  #143 ) ;
#109 = PERSON_AND_ORGANIZATION ( #116, #94 ) ;
#110 = FACE_OUTER_BOUND ( 'NONE', #92, .T. ) ;
#111 =( GEOMETRIC_REPRESENTATION_CONTEXT ( 3 ) GLOBAL_UNCERTAINTY_ASSIGNED_CONTEXT ( ( #18 ) ) GLOBAL_UNIT_ASSIGNED_CONTEXT ( ( #182, #2, #200 ) ) REPRESENTATION_CONTEXT ( 'NONE', 'WORKASPACE' ) );
#112 = APPROVAL_STATUS ( 'not_yet_approved' ) ;
#113 = VERTEX_POINT ( 'NONE', #104 ) ;
#114 = DATE_AND_TIME ( #169, #229 ) ;
#115 = DIRECTION ( 'NONE',  ( 1.000000000000000000, 0.000000000000000000, 0.000000000000000000 ) ) ;
#116 = PERSON ( 'NEURÈENÝ', 'NEURÈENÝ', 'NEURÈENÝ', ('NEURÈENÝ'), ('NEURÈENÝ'), ('NEURÈENÝ') ) ;
#117 = VECTOR ( 'NONE', #100, 1000.000000000000000 ) ;
#118 = VECTOR ( 'NONE', #52, 1000.000000000000000 ) ;
#119 = CC_DESIGN_APPROVAL ( #4, ( #20 ) ) ;
#120 = CARTESIAN_POINT ( 'NONE',  ( 0.000000000000000000, 0.000000000000000000, 315.0000000000000000 ) ) ;
#121 = CARTESIAN_POINT ( 'NONE',  ( 0.000000000000000000, 0.000000000000000000, 0.000000000000000000 ) ) ;
#122 = APPLICATION_PROTOCOL_DEFINITION ( 'international standard', 'config_control_design', 1994, #144 ) ;
#123 = ORIENTED_EDGE ( 'NONE', *, *, #226, .T. ) ;
#124 = DIRECTION ( 'NONE',  ( 0.000000000000000000, 0.000000000000000000, 1.000000000000000000 ) ) ;
#125 = APPLICATION_PROTOCOL_DEFINITION ( 'international standard', 'config_control_design', 1994, #98 ) ;
#126 = MECHANICAL_CONTEXT ( 'NONE', #98, 'mechanical' ) ;
#127 = AXIS2_PLACEMENT_3D ( 'NONE', #30, #48, #82 ) ;
#128 = DIRECTION ( 'NONE',  ( 1.000000000000000000, 0.000000000000000000, 0.000000000000000000 ) ) ;
#129 = CALENDAR_DATE ( 2023, 13, 2 ) ;
#130 = PERSON_AND_ORGANIZATION_ROLE ( 'creator' ) ;
#131 = DIRECTION ( 'NONE',  ( 1.000000000000000000, 0.000000000000000000, -0.000000000000000000 ) ) ;
#132 = PERSON_AND_ORGANIZATION_ROLE ( 'classification_officer' ) ;
#133 = DIRECTION ( 'NONE',  ( 1.000000000000000000, 0.000000000000000000, 0.000000000000000000 ) ) ;
#134 = CC_DESIGN_APPROVAL ( #254, ( #181 ) ) ;
#135 = PRODUCT_DEFINITION_SHAPE ( 'NONE', 'NONE',  #181 ) ;
#136 = APPROVAL_ROLE ( '' ) ;
#137 = ORIENTED_EDGE ( 'NONE', *, *, #159, .F. ) ;
#138 = EDGE_CURVE ( 'NONE', #237, #162, #71, .T. ) ;
#139 = EDGE_CURVE ( 'NONE', #15, #193, #216, .T. ) ;
#140 = AXIS2_PLACEMENT_3D ( 'NONE', #204, #165, #5 ) ;
#141 = CARTESIAN_POINT ( 'NONE',  ( 0.000000000000000000, 0.000000000000000000, 315.0000000000000000 ) ) ;
#142 = DIRECTION ( 'NONE',  ( -0.000000000000000000, -0.000000000000000000, -1.000000000000000000 ) ) ;
#143 = AXIS2_PLACEMENT_3D ( 'NONE', #89, #168, #131 ) ;
#144 = APPLICATION_CONTEXT ( 'configuration controlled 3d designs of mechanical parts and assemblies' ) ;
#145 = CARTESIAN_POINT ( 'NONE',  ( -6.000000000000000888, 0.000000000000000000, 0.000000000000000000 ) ) ;
#146 = CIRCLE ( 'NONE', #238, 3.500000000000000000 ) ;
#147 = CC_DESIGN_PERSON_AND_ORGANIZATION_ASSIGNMENT ( #186, #6, ( #181 ) ) ;
#148 = ORIENTED_EDGE ( 'NONE', *, *, #139, .T. ) ;
#149 = CARTESIAN_POINT ( 'NONE',  ( 0.000000000000000000, 0.000000000000000000, 5.000000000000000000 ) ) ;
#150 = LINE ( 'NONE', #179, #183 ) ;
#151 = CARTESIAN_POINT ( 'NONE',  ( 0.000000000000000000, 0.000000000000000000, 5.000000000000000000 ) ) ;
#152 = DATE_AND_TIME ( #61, #236 ) ;
#153 = ORIENTED_EDGE ( 'NONE', *, *, #159, .T. ) ;
#154 = DIRECTION ( 'NONE',  ( -1.000000000000000000, 0.000000000000000000, 0.000000000000000000 ) ) ;
#155 = CC_DESIGN_PERSON_AND_ORGANIZATION_ASSIGNMENT ( #109, #251, ( #20 ) ) ;
#156 = EDGE_LOOP ( 'NONE', ( #49, #87, #28, #153 ) ) ;
#157 = ADVANCED_FACE ( 'NONE', ( #185 ), #85, .T. ) ;
#158 = CIRCLE ( 'NONE', #240, 3.500000000000000000 ) ;
#159 = EDGE_CURVE ( 'NONE', #113, #162, #97, .T. ) ;
#160 = EDGE_CURVE ( 'NONE', #237, #211, #146, .T. ) ;
#161 = VERTEX_POINT ( 'NONE', #32 ) ;
#162 = VERTEX_POINT ( 'NONE', #191 ) ;
#163 = DIRECTION ( 'NONE',  ( -0.000000000000000000, -0.000000000000000000, -1.000000000000000000 ) ) ;
#164 = CLOSED_SHELL ( 'NONE', ( #65, #81, #157, #102, #64, #231, #86 ) ) ;
#165 = DIRECTION ( 'NONE',  ( 0.000000000000000000, 0.000000000000000000, 1.000000000000000000 ) ) ;
#166 = EDGE_LOOP ( 'NONE', ( #192, #56 ) ) ;
#167 = DIRECTION ( 'NONE',  ( 1.000000000000000000, 0.000000000000000000, -0.000000000000000000 ) ) ;
#168 = DIRECTION ( 'NONE',  ( 0.000000000000000000, 0.000000000000000000, 1.000000000000000000 ) ) ;
#169 = CALENDAR_DATE ( 2023, 13, 2 ) ;
#170 = CARTESIAN_POINT ( 'NONE',  ( 0.000000000000000000, 0.000000000000000000, 5.000000000000000000 ) ) ;
#171 = COORDINATED_UNIVERSAL_TIME_OFFSET ( 1, 0, .AHEAD. ) ;
#172 = PRODUCT ( 'e053', 'e053', '', ( #126 ) ) ;
#173 = ORIENTED_EDGE ( 'NONE', *, *, #14, .T. ) ;
#174 = COORDINATED_UNIVERSAL_TIME_OFFSET ( 1, 0, .AHEAD. ) ;
#175 = VERTEX_POINT ( 'NONE', #242 ) ;
#176 = ADVANCED_BREP_SHAPE_REPRESENTATION ( 'e053', ( #31, #127 ), #111 ) ;
#177 = CC_DESIGN_SECURITY_CLASSIFICATION ( #219, ( #20 ) ) ;
#178 = CC_DESIGN_DATE_AND_TIME_ASSIGNMENT ( #114, #212, ( #219 ) ) ;
#179 = CARTESIAN_POINT ( 'NONE',  ( -3.500000000000000000, 0.000000000000000000, 315.0000000000000000 ) ) ;
#180 = EDGE_CURVE ( 'NONE', #161, #193, #67, .T. ) ;
#181 = PRODUCT_DEFINITION ( 'NEZNÁMÝ', '', #20, #72 ) ;
#182 =( LENGTH_UNIT ( ) NAMED_UNIT ( * ) SI_UNIT ( .MILLI., .METRE. ) );
#183 = VECTOR ( 'NONE', #221, 1000.000000000000000 ) ;
#184 = ORIENTED_EDGE ( 'NONE', *, *, #44, .T. ) ;
#185 = FACE_OUTER_BOUND ( 'NONE', #13, .T. ) ;
#186 = PERSON_AND_ORGANIZATION ( #116, #94 ) ;
#187 = PLANE ( 'NONE',  #230 ) ;
#188 = CALENDAR_DATE ( 2023, 13, 2 ) ;
#189 = DIRECTION ( 'NONE',  ( -1.000000000000000000, 0.000000000000000000, 0.000000000000000000 ) ) ;
#190 = PERSON_AND_ORGANIZATION ( #116, #94 ) ;
#191 = CARTESIAN_POINT ( 'NONE',  ( 3.500000000000000000, 4.286263797015736595E-16, 5.000000000000000000 ) ) ;
#192 = ORIENTED_EDGE ( 'NONE', *, *, #206, .F. ) ;
#193 = VERTEX_POINT ( 'NONE', #145 ) ;
#194 = AXIS2_PLACEMENT_3D ( 'NONE', #246, #47, #68 ) ;
#195 = APPROVAL_ROLE ( '' ) ;
#196 = CARTESIAN_POINT ( 'NONE',  ( 0.000000000000000000, 0.000000000000000000, 5.000000000000000000 ) ) ;
#197 = DATE_AND_TIME ( #129, #239 ) ;
#198 = CARTESIAN_POINT ( 'NONE',  ( 0.000000000000000000, 0.000000000000000000, 5.000000000000000000 ) ) ;
#199 = CIRCLE ( 'NONE', #222, 6.000000000000000888 ) ;
#200 =( NAMED_UNIT ( * ) SI_UNIT ( $, .STERADIAN. ) SOLID_ANGLE_UNIT ( ) );
#201 = DIRECTION ( 'NONE',  ( 0.000000000000000000, 0.000000000000000000, 1.000000000000000000 ) ) ;
#202 = COORDINATED_UNIVERSAL_TIME_OFFSET ( 1, 0, .AHEAD. ) ;
#203 = EDGE_LOOP ( 'NONE', ( #184, #173 ) ) ;
#204 = CARTESIAN_POINT ( 'NONE',  ( 0.000000000000000000, 0.000000000000000000, 0.000000000000000000 ) ) ;
#205 = DIRECTION ( 'NONE',  ( -0.000000000000000000, -0.000000000000000000, -1.000000000000000000 ) ) ;
#206 = EDGE_CURVE ( 'NONE', #193, #15, #247, .T. ) ;
#207 = DIRECTION ( 'NONE',  ( -0.000000000000000000, -0.000000000000000000, -1.000000000000000000 ) ) ;
#208 = SHAPE_DEFINITION_REPRESENTATION ( #135, #176 ) ;
#209 = DIRECTION ( 'NONE',  ( 1.000000000000000000, 0.000000000000000000, 0.000000000000000000 ) ) ;
#210 = EDGE_CURVE ( 'NONE', #175, #15, #83, .T. ) ;
#211 = VERTEX_POINT ( 'NONE', #29 ) ;
#212 = DATE_TIME_ROLE ( 'classification_date' ) ;
#213 = APPROVAL_PERSON_ORGANIZATION ( #190, #254, #51 ) ;
#214 = FACE_OUTER_BOUND ( 'NONE', #10, .T. ) ;
#215 = ORIENTED_EDGE ( 'NONE', *, *, #218, .F. ) ;
#216 = CIRCLE ( 'NONE', #80, 6.000000000000000888 ) ;
#217 = CC_DESIGN_PERSON_AND_ORGANIZATION_ASSIGNMENT ( #11, #130, ( #20 ) ) ;
#218 = EDGE_CURVE ( 'NONE', #211, #113, #150, .T. ) ;
#219 = SECURITY_CLASSIFICATION ( '', '', #57 ) ;
#220 = DIRECTION ( 'NONE',  ( -1.000000000000000000, 0.000000000000000000, 0.000000000000000000 ) ) ;
#221 = DIRECTION ( 'NONE',  ( -0.000000000000000000, -0.000000000000000000, -1.000000000000000000 ) ) ;
#222 = AXIS2_PLACEMENT_3D ( 'NONE', #198, #93, #209 ) ;
#223 = FACE_OUTER_BOUND ( 'NONE', #62, .T. ) ;
#224 = ORIENTED_EDGE ( 'NONE', *, *, #70, .T. ) ;
#225 = DIRECTION ( 'NONE',  ( 1.000000000000000000, 0.000000000000000000, 0.000000000000000000 ) ) ;
#226 = EDGE_CURVE ( 'NONE', #211, #237, #1, .T. ) ;
#227 = DIRECTION ( 'NONE',  ( 0.000000000000000000, 0.000000000000000000, 1.000000000000000000 ) ) ;
#228 = DIRECTION ( 'NONE',  ( 0.000000000000000000, 0.000000000000000000, 1.000000000000000000 ) ) ;
#229 = LOCAL_TIME ( 14, 35, 47.00000000000000000, #90 ) ;
#230 = AXIS2_PLACEMENT_3D ( 'NONE', #106, #124, #167 ) ;
#231 = ADVANCED_FACE ( 'NONE', ( #99 ), #63, .T. ) ;
#232 = ORIENTED_EDGE ( 'NONE', *, *, #70, .F. ) ;
#233 = PRODUCT_RELATED_PRODUCT_CATEGORY ( 'detail', '', ( #172 ) ) ;
#234 = CARTESIAN_POINT ( 'NONE',  ( 0.000000000000000000, 0.000000000000000000, 5.000000000000000000 ) ) ;
#235 = APPROVAL_DATE_TIME ( #152, #4 ) ;
#236 = LOCAL_TIME ( 14, 35, 47.00000000000000000, #171 ) ;
#237 = VERTEX_POINT ( 'NONE', #43 ) ;
#238 = AXIS2_PLACEMENT_3D ( 'NONE', #8, #227, #244 ) ;
#239 = LOCAL_TIME ( 14, 35, 47.00000000000000000, #77 ) ;
#240 = AXIS2_PLACEMENT_3D ( 'NONE', #234, #58, #133 ) ;
#241 = ORIENTED_EDGE ( 'NONE', *, *, #180, .T. ) ;
#242 = CARTESIAN_POINT ( 'NONE',  ( 6.000000000000000888, 7.347880794884120722E-16, 5.000000000000000000 ) ) ;
#243 = LOCAL_TIME ( 14, 35, 47.00000000000000000, #202 ) ;
#244 = DIRECTION ( 'NONE',  ( 1.000000000000000000, 0.000000000000000000, 0.000000000000000000 ) ) ;
#245 = FACE_BOUND ( 'NONE', #25, .T. ) ;
#246 = CARTESIAN_POINT ( 'NONE',  ( 0.000000000000000000, 0.000000000000000000, 5.000000000000000000 ) ) ;
#247 = CIRCLE ( 'NONE', #140, 6.000000000000000888 ) ;
#248 = ORIENTED_EDGE ( 'NONE', *, *, #138, .T. ) ;
#249 = DATE_TIME_ROLE ( 'creation_date' ) ;
#250 = DIRECTION ( 'NONE',  ( -0.000000000000000000, -0.000000000000000000, -1.000000000000000000 ) ) ;
#251 = PERSON_AND_ORGANIZATION_ROLE ( 'design_supplier' ) ;
#252 = ORIENTED_EDGE ( 'NONE', *, *, #160, .T. ) ;
#253 = ORIENTED_EDGE ( 'NONE', *, *, #14, .F. ) ;
#254 = APPROVAL ( #9, 'NEURÈENÝ' ) ;
#255 = AXIS2_PLACEMENT_3D ( 'NONE', #151, #201, #128 ) ;
ENDSEC;
END-ISO-10303-21;
