ISO-10303-21;
HEADER;
FILE_DESCRIPTION (( 'STEP AP203' ),
    '1' );
FILE_NAME ('4098.STEP',
    '2023-02-13T15:05:33',
    ( '' ),
    ( '' ),
    'SwSTEP 2.0',
    'SolidWorks 2019',
    '' );
FILE_SCHEMA (( 'CONFIG_CONTROL_DESIGN' ));
ENDSEC;

DATA;
#1 = APPLICATION_CONTEXT ( 'configuration controlled 3d designs of mechanical parts and assemblies' ) ;
#2 = CC_DESIGN_PERSON_AND_ORGANIZATION_ASSIGNMENT ( #122, #170, ( #71 ) ) ;
#3 =( GEOMETRIC_REPRESENTATION_CONTEXT ( 3 ) GLOBAL_UNCERTAINTY_ASSIGNED_CONTEXT ( ( #241 ) ) GLOBAL_UNIT_ASSIGNED_CONTEXT ( ( #64, #22, #212 ) ) REPRESENTATION_CONTEXT ( 'NONE', 'WORKASPACE' ) );
#4 = ORIENTED_EDGE ( 'NONE', *, *, #108, .T. ) ;
#5 = VECTOR ( 'NONE', #37, 1000.000000000000000 ) ;
#6 = CARTESIAN_POINT ( 'NONE',  ( -2.100000000000000089, 0.000000000000000000, 400.0000000000000000 ) ) ;
#7 = CARTESIAN_POINT ( 'NONE',  ( 2.100000000000000089, 2.571758278209441957E-16, 400.0000000000000000 ) ) ;
#8 = DESIGN_CONTEXT ( 'detailed design', #1, 'design' ) ;
#9 = ORIENTED_EDGE ( 'NONE', *, *, #50, .T. ) ;
#10 = DIRECTION ( 'NONE',  ( -0.000000000000000000, -0.000000000000000000, -1.000000000000000000 ) ) ;
#11 = ADVANCED_FACE ( 'NONE', ( #117 ), #115, .T. ) ;
#12 = ORIENTED_EDGE ( 'NONE', *, *, #246, .F. ) ;
#13 = CIRCLE ( 'NONE', #193, 4.000000000000000000 ) ;
#14 = ORGANIZATION ( 'NEURÈENÝ', 'NEURÈENÝ', '' ) ;
#15 = DIRECTION ( 'NONE',  ( -1.000000000000000000, 0.000000000000000000, 0.000000000000000000 ) ) ;
#16 = DIRECTION ( 'NONE',  ( -0.000000000000000000, -0.000000000000000000, -1.000000000000000000 ) ) ;
#17 = VERTEX_POINT ( 'NONE', #139 ) ;
#18 = ORIENTED_EDGE ( 'NONE', *, *, #143, .F. ) ;
#19 = DIRECTION ( 'NONE',  ( 0.000000000000000000, 0.000000000000000000, 1.000000000000000000 ) ) ;
#20 = APPROVAL_STATUS ( 'not_yet_approved' ) ;
#21 = CYLINDRICAL_SURFACE ( 'NONE', #161, 4.000000000000000000 ) ;
#22 =( NAMED_UNIT ( * ) PLANE_ANGLE_UNIT ( ) SI_UNIT ( $, .RADIAN. ) );
#23 = ADVANCED_FACE ( 'NONE', ( #188 ), #118, .T. ) ;
#24 = DIRECTION ( 'NONE',  ( 0.000000000000000000, 0.000000000000000000, 1.000000000000000000 ) ) ;
#25 = FACE_OUTER_BOUND ( 'NONE', #70, .T. ) ;
#26 = DIRECTION ( 'NONE',  ( 0.000000000000000000, 0.000000000000000000, 1.000000000000000000 ) ) ;
#27 = CALENDAR_DATE ( 2023, 13, 2 ) ;
#28 = SHAPE_DEFINITION_REPRESENTATION ( #68, #234 ) ;
#29 = PRODUCT_DEFINITION ( 'NEZNÁMÝ', '', #183, #8 ) ;
#30 = LOCAL_TIME ( 16, 5, 33.00000000000000000, #219 ) ;
#31 = CYLINDRICAL_SURFACE ( 'NONE', #38, 2.100000000000000089 ) ;
#32 = CARTESIAN_POINT ( 'NONE',  ( 2.100000000000000089, 2.571758278209441957E-16, 400.0000000000000000 ) ) ;
#33 = AXIS2_PLACEMENT_3D ( 'NONE', #179, #83, #211 ) ;
#34 = EDGE_LOOP ( 'NONE', ( #127, #105 ) ) ;
#35 = EDGE_LOOP ( 'NONE', ( #137, #190, #206, #158 ) ) ;
#36 = DIRECTION ( 'NONE',  ( -1.000000000000000000, 0.000000000000000000, 0.000000000000000000 ) ) ;
#37 = DIRECTION ( 'NONE',  ( -0.000000000000000000, -0.000000000000000000, -1.000000000000000000 ) ) ;
#38 = AXIS2_PLACEMENT_3D ( 'NONE', #222, #10, #15 ) ;
#39 = PERSON_AND_ORGANIZATION_ROLE ( 'creator' ) ;
#40 = EDGE_CURVE ( 'NONE', #73, #17, #156, .T. ) ;
#41 = CC_DESIGN_PERSON_AND_ORGANIZATION_ASSIGNMENT ( #248, #76, ( #29 ) ) ;
#42 = DIRECTION ( 'NONE',  ( 1.000000000000000000, 0.000000000000000000, 0.000000000000000000 ) ) ;
#43 = CARTESIAN_POINT ( 'NONE',  ( 0.000000000000000000, 0.000000000000000000, 3.000000000000000000 ) ) ;
#44 = AXIS2_PLACEMENT_3D ( 'NONE', #57, #207, #36 ) ;
#45 = COORDINATED_UNIVERSAL_TIME_OFFSET ( 1, 0, .AHEAD. ) ;
#46 = CARTESIAN_POINT ( 'NONE',  ( 0.000000000000000000, 0.000000000000000000, 400.0000000000000000 ) ) ;
#47 = VECTOR ( 'NONE', #90, 1000.000000000000000 ) ;
#48 = APPROVAL_ROLE ( '' ) ;
#49 = APPROVAL_STATUS ( 'not_yet_approved' ) ;
#50 = EDGE_CURVE ( 'NONE', #187, #171, #93, .T. ) ;
#51 = DIRECTION ( 'NONE',  ( 1.000000000000000000, 0.000000000000000000, 0.000000000000000000 ) ) ;
#52 = ORIENTED_EDGE ( 'NONE', *, *, #143, .T. ) ;
#53 = AXIS2_PLACEMENT_3D ( 'NONE', #191, #94, #247 ) ;
#54 = LINE ( 'NONE', #6, #78 ) ;
#55 = PRODUCT_RELATED_PRODUCT_CATEGORY ( 'detail', '', ( #220 ) ) ;
#56 = PERSON_AND_ORGANIZATION_ROLE ( 'design_owner' ) ;
#57 = CARTESIAN_POINT ( 'NONE',  ( 0.000000000000000000, 0.000000000000000000, 400.0000000000000000 ) ) ;
#58 = PERSON_AND_ORGANIZATION ( #102, #14 ) ;
#59 = EDGE_CURVE ( 'NONE', #84, #17, #172, .T. ) ;
#60 = APPROVAL ( #99, 'NEURÈENÝ' ) ;
#61 = SECURITY_CLASSIFICATION_LEVEL ( 'unclassified' ) ;
#62 = DIRECTION ( 'NONE',  ( 0.000000000000000000, 0.000000000000000000, 1.000000000000000000 ) ) ;
#63 = PLANE ( 'NONE',  #229 ) ;
#64 =( LENGTH_UNIT ( ) NAMED_UNIT ( * ) SI_UNIT ( .MILLI., .METRE. ) );
#65 = APPROVAL_DATE_TIME ( #238, #242 ) ;
#66 = FACE_OUTER_BOUND ( 'NONE', #72, .T. ) ;
#67 = CC_DESIGN_SECURITY_CLASSIFICATION ( #71, ( #183 ) ) ;
#68 = PRODUCT_DEFINITION_SHAPE ( 'NONE', 'NONE',  #29 ) ;
#69 = EDGE_CURVE ( 'NONE', #171, #225, #87, .T. ) ;
#70 = EDGE_LOOP ( 'NONE', ( #145, #175 ) ) ;
#71 = SECURITY_CLASSIFICATION ( '', '', #61 ) ;
#72 = EDGE_LOOP ( 'NONE', ( #176, #4 ) ) ;
#73 = VERTEX_POINT ( 'NONE', #203 ) ;
#74 = COORDINATED_UNIVERSAL_TIME_OFFSET ( 1, 0, .AHEAD. ) ;
#75 = DIRECTION ( 'NONE',  ( 1.000000000000000000, 0.000000000000000000, -0.000000000000000000 ) ) ;
#76 = PERSON_AND_ORGANIZATION_ROLE ( 'creator' ) ;
#77 = CARTESIAN_POINT ( 'NONE',  ( 4.000000000000000000, 4.898587196589412829E-16, 3.000000000000000000 ) ) ;
#78 = VECTOR ( 'NONE', #134, 1000.000000000000000 ) ;
#79 = CALENDAR_DATE ( 2023, 13, 2 ) ;
#80 = DIRECTION ( 'NONE',  ( 0.000000000000000000, 0.000000000000000000, 1.000000000000000000 ) ) ;
#81 = COORDINATED_UNIVERSAL_TIME_OFFSET ( 1, 0, .AHEAD. ) ;
#82 = DIRECTION ( 'NONE',  ( 0.000000000000000000, 0.000000000000000000, 1.000000000000000000 ) ) ;
#83 = DIRECTION ( 'NONE',  ( 0.000000000000000000, 0.000000000000000000, 1.000000000000000000 ) ) ;
#84 = VERTEX_POINT ( 'NONE', #32 ) ;
#85 = ORIENTED_EDGE ( 'NONE', *, *, #69, .F. ) ;
#86 = ADVANCED_FACE ( 'NONE', ( #228 ), #21, .T. ) ;
#87 = CIRCLE ( 'NONE', #113, 4.000000000000000000 ) ;
#88 = APPROVAL_PERSON_ORGANIZATION ( #226, #250, #141 ) ;
#89 = CC_DESIGN_PERSON_AND_ORGANIZATION_ASSIGNMENT ( #119, #56, ( #220 ) ) ;
#90 = DIRECTION ( 'NONE',  ( -0.000000000000000000, -0.000000000000000000, -1.000000000000000000 ) ) ;
#91 = VERTEX_POINT ( 'NONE', #77 ) ;
#92 = AXIS2_PLACEMENT_3D ( 'NONE', #138, #199, #210 ) ;
#93 = LINE ( 'NONE', #243, #146 ) ;
#94 = DIRECTION ( 'NONE',  ( 0.000000000000000000, 0.000000000000000000, 1.000000000000000000 ) ) ;
#95 = CLOSED_SHELL ( 'NONE', ( #240, #86, #23, #230, #184, #11, #114 ) ) ;
#96 = ORIENTED_EDGE ( 'NONE', *, *, #133, .T. ) ;
#97 = APPLICATION_PROTOCOL_DEFINITION ( 'international standard', 'config_control_design', 1994, #1 ) ;
#98 = FACE_OUTER_BOUND ( 'NONE', #155, .T. ) ;
#99 = APPROVAL_STATUS ( 'not_yet_approved' ) ;
#100 = FACE_BOUND ( 'NONE', #34, .T. ) ;
#101 = DIRECTION ( 'NONE',  ( 1.000000000000000000, 0.000000000000000000, 0.000000000000000000 ) ) ;
#102 = PERSON ( 'NEURÈENÝ', 'NEURÈENÝ', 'NEURÈENÝ', ('NEURÈENÝ'), ('NEURÈENÝ'), ('NEURÈENÝ') ) ;
#103 = DATE_AND_TIME ( #128, #223 ) ;
#104 = CARTESIAN_POINT ( 'NONE',  ( 0.000000000000000000, 0.000000000000000000, 400.0000000000000000 ) ) ;
#105 = ORIENTED_EDGE ( 'NONE', *, *, #133, .F. ) ;
#106 = AXIS2_PLACEMENT_3D ( 'NONE', #205, #16, #208 ) ;
#107 = ORIENTED_EDGE ( 'NONE', *, *, #163, .F. ) ;
#108 = EDGE_CURVE ( 'NONE', #84, #168, #249, .T. ) ;
#109 = CC_DESIGN_APPROVAL ( #250, ( #183 ) ) ;
#110 = DATE_AND_TIME ( #27, #30 ) ;
#111 = ORIENTED_EDGE ( 'NONE', *, *, #178, .F. ) ;
#112 = EDGE_LOOP ( 'NONE', ( #18, #107, #9, #152 ) ) ;
#113 = AXIS2_PLACEMENT_3D ( 'NONE', #153, #221, #51 ) ;
#114 = ADVANCED_FACE ( 'NONE', ( #66 ), #235, .T. ) ;
#115 = CYLINDRICAL_SURFACE ( 'NONE', #44, 2.100000000000000089 ) ;
#116 = LOCAL_TIME ( 16, 5, 33.00000000000000000, #81 ) ;
#117 = FACE_OUTER_BOUND ( 'NONE', #35, .T. ) ;
#118 = CYLINDRICAL_SURFACE ( 'NONE', #106, 4.000000000000000000 ) ;
#119 = PERSON_AND_ORGANIZATION ( #102, #14 ) ;
#120 = CARTESIAN_POINT ( 'NONE',  ( -2.100000000000000089, 0.000000000000000000, 400.0000000000000000 ) ) ;
#121 = PERSON_AND_ORGANIZATION ( #102, #14 ) ;
#122 = PERSON_AND_ORGANIZATION ( #102, #14 ) ;
#123 = DIRECTION ( 'NONE',  ( 0.000000000000000000, 0.000000000000000000, 1.000000000000000000 ) ) ;
#124 = AXIS2_PLACEMENT_3D ( 'NONE', #46, #26, #233 ) ;
#125 = DIRECTION ( 'NONE',  ( -1.000000000000000000, 0.000000000000000000, 0.000000000000000000 ) ) ;
#126 = LOCAL_TIME ( 16, 5, 33.00000000000000000, #217 ) ;
#127 = ORIENTED_EDGE ( 'NONE', *, *, #40, .F. ) ;
#128 = CALENDAR_DATE ( 2023, 13, 2 ) ;
#129 = CARTESIAN_POINT ( 'NONE',  ( 0.000000000000000000, 0.000000000000000000, 0.000000000000000000 ) ) ;
#130 = EDGE_LOOP ( 'NONE', ( #154, #174, #96, #12 ) ) ;
#131 = AXIS2_PLACEMENT_3D ( 'NONE', #195, #192, #149 ) ;
#132 = CC_DESIGN_DATE_AND_TIME_ASSIGNMENT ( #110, #169, ( #71 ) ) ;
#133 = EDGE_CURVE ( 'NONE', #17, #73, #140, .T. ) ;
#134 = DIRECTION ( 'NONE',  ( -0.000000000000000000, -0.000000000000000000, -1.000000000000000000 ) ) ;
#135 = ORIENTED_EDGE ( 'NONE', *, *, #218, .F. ) ;
#136 = AXIS2_PLACEMENT_3D ( 'NONE', #254, #82, #167 ) ;
#137 = ORIENTED_EDGE ( 'NONE', *, *, #59, .F. ) ;
#138 = CARTESIAN_POINT ( 'NONE',  ( 0.000000000000000000, 0.000000000000000000, 0.000000000000000000 ) ) ;
#139 = CARTESIAN_POINT ( 'NONE',  ( 2.100000000000000089, 2.571758278209441957E-16, 3.000000000000000000 ) ) ;
#140 = CIRCLE ( 'NONE', #33, 2.100000000000000089 ) ;
#141 = APPROVAL_ROLE ( '' ) ;
#142 = DIRECTION ( 'NONE',  ( 1.000000000000000000, 0.000000000000000000, 0.000000000000000000 ) ) ;
#143 = EDGE_CURVE ( 'NONE', #91, #225, #251, .T. ) ;
#144 = CARTESIAN_POINT ( 'NONE',  ( -4.000000000000000000, 0.000000000000000000, 0.000000000000000000 ) ) ;
#145 = ORIENTED_EDGE ( 'NONE', *, *, #163, .T. ) ;
#146 = VECTOR ( 'NONE', #186, 1000.000000000000000 ) ;
#147 = APPROVAL_DATE_TIME ( #177, #60 ) ;
#148 = LOCAL_TIME ( 16, 5, 33.00000000000000000, #74 ) ;
#149 = DIRECTION ( 'NONE',  ( 1.000000000000000000, 0.000000000000000000, 0.000000000000000000 ) ) ;
#150 = PERSON_AND_ORGANIZATION ( #102, #14 ) ;
#151 = AXIS2_PLACEMENT_3D ( 'NONE', #104, #62, #101 ) ;
#152 = ORIENTED_EDGE ( 'NONE', *, *, #69, .T. ) ;
#153 = CARTESIAN_POINT ( 'NONE',  ( 0.000000000000000000, 0.000000000000000000, 0.000000000000000000 ) ) ;
#154 = ORIENTED_EDGE ( 'NONE', *, *, #108, .F. ) ;
#155 = EDGE_LOOP ( 'NONE', ( #85, #111 ) ) ;
#156 = CIRCLE ( 'NONE', #53, 2.100000000000000089 ) ;
#157 = APPROVAL_PERSON_ORGANIZATION ( #253, #60, #232 ) ;
#158 = ORIENTED_EDGE ( 'NONE', *, *, #40, .T. ) ;
#159 = CALENDAR_DATE ( 2023, 13, 2 ) ;
#160 = CARTESIAN_POINT ( 'NONE',  ( -4.000000000000000000, 0.000000000000000000, 3.000000000000000000 ) ) ;
#161 = AXIS2_PLACEMENT_3D ( 'NONE', #215, #200, #125 ) ;
#162 = CARTESIAN_POINT ( 'NONE',  ( 4.000000000000000000, 4.898587196589412829E-16, 3.000000000000000000 ) ) ;
#163 = EDGE_CURVE ( 'NONE', #187, #91, #185, .T. ) ;
#164 = CC_DESIGN_APPROVAL ( #60, ( #29 ) ) ;
#165 = CARTESIAN_POINT ( 'NONE',  ( 4.000000000000000000, 4.898587196589412829E-16, 0.000000000000000000 ) ) ;
#166 = DATE_AND_TIME ( #159, #148 ) ;
#167 = DIRECTION ( 'NONE',  ( 1.000000000000000000, 0.000000000000000000, -0.000000000000000000 ) ) ;
#168 = VERTEX_POINT ( 'NONE', #120 ) ;
#169 = DATE_TIME_ROLE ( 'classification_date' ) ;
#170 = PERSON_AND_ORGANIZATION_ROLE ( 'classification_officer' ) ;
#171 = VERTEX_POINT ( 'NONE', #144 ) ;
#172 = LINE ( 'NONE', #7, #47 ) ;
#173 = AXIS2_PLACEMENT_3D ( 'NONE', #43, #123, #142 ) ;
#174 = ORIENTED_EDGE ( 'NONE', *, *, #59, .T. ) ;
#175 = ORIENTED_EDGE ( 'NONE', *, *, #218, .T. ) ;
#176 = ORIENTED_EDGE ( 'NONE', *, *, #202, .T. ) ;
#177 = DATE_AND_TIME ( #79, #116 ) ;
#178 = EDGE_CURVE ( 'NONE', #225, #171, #13, .T. ) ;
#179 = CARTESIAN_POINT ( 'NONE',  ( 0.000000000000000000, 0.000000000000000000, 3.000000000000000000 ) ) ;
#180 = CC_DESIGN_APPROVAL ( #242, ( #71 ) ) ;
#181 = PLANE ( 'NONE',  #136 ) ;
#182 = APPROVAL_DATE_TIME ( #103, #250 ) ;
#183 = PRODUCT_DEFINITION_FORMATION_WITH_SPECIFIED_SOURCE ( 'LIBOVOLNÝ', '', #220, .NOT_KNOWN. ) ;
#184 = ADVANCED_FACE ( 'NONE', ( #98 ), #63, .F. ) ;
#185 = CIRCLE ( 'NONE', #131, 4.000000000000000000 ) ;
#186 = DIRECTION ( 'NONE',  ( -0.000000000000000000, -0.000000000000000000, -1.000000000000000000 ) ) ;
#187 = VERTEX_POINT ( 'NONE', #160 ) ;
#188 = FACE_OUTER_BOUND ( 'NONE', #112, .T. ) ;
#189 = CC_DESIGN_DATE_AND_TIME_ASSIGNMENT ( #166, #214, ( #29 ) ) ;
#190 = ORIENTED_EDGE ( 'NONE', *, *, #202, .F. ) ;
#191 = CARTESIAN_POINT ( 'NONE',  ( 0.000000000000000000, 0.000000000000000000, 3.000000000000000000 ) ) ;
#192 = DIRECTION ( 'NONE',  ( 0.000000000000000000, 0.000000000000000000, 1.000000000000000000 ) ) ;
#193 = AXIS2_PLACEMENT_3D ( 'NONE', #129, #19, #42 ) ;
#194 = PERSON_AND_ORGANIZATION_ROLE ( 'design_supplier' ) ;
#195 = CARTESIAN_POINT ( 'NONE',  ( 0.000000000000000000, 0.000000000000000000, 3.000000000000000000 ) ) ;
#196 = MECHANICAL_CONTEXT ( 'NONE', #239, 'mechanical' ) ;
#197 = CC_DESIGN_PERSON_AND_ORGANIZATION_ASSIGNMENT ( #58, #39, ( #183 ) ) ;
#198 = EDGE_LOOP ( 'NONE', ( #135, #52, #237, #244 ) ) ;
#199 = DIRECTION ( 'NONE',  ( 0.000000000000000000, 0.000000000000000000, 1.000000000000000000 ) ) ;
#200 = DIRECTION ( 'NONE',  ( -0.000000000000000000, -0.000000000000000000, -1.000000000000000000 ) ) ;
#201 = CIRCLE ( 'NONE', #216, 2.100000000000000089 ) ;
#202 = EDGE_CURVE ( 'NONE', #168, #84, #201, .T. ) ;
#203 = CARTESIAN_POINT ( 'NONE',  ( -2.100000000000000089, 0.000000000000000000, 3.000000000000000000 ) ) ;
#204 = CC_DESIGN_PERSON_AND_ORGANIZATION_ASSIGNMENT ( #121, #194, ( #183 ) ) ;
#205 = CARTESIAN_POINT ( 'NONE',  ( 0.000000000000000000, 0.000000000000000000, 3.000000000000000000 ) ) ;
#206 = ORIENTED_EDGE ( 'NONE', *, *, #246, .T. ) ;
#207 = DIRECTION ( 'NONE',  ( -0.000000000000000000, -0.000000000000000000, -1.000000000000000000 ) ) ;
#208 = DIRECTION ( 'NONE',  ( -1.000000000000000000, 0.000000000000000000, 0.000000000000000000 ) ) ;
#209 = FACE_OUTER_BOUND ( 'NONE', #130, .T. ) ;
#210 = DIRECTION ( 'NONE',  ( 1.000000000000000000, 0.000000000000000000, 0.000000000000000000 ) ) ;
#211 = DIRECTION ( 'NONE',  ( 1.000000000000000000, 0.000000000000000000, 0.000000000000000000 ) ) ;
#212 =( NAMED_UNIT ( * ) SI_UNIT ( $, .STERADIAN. ) SOLID_ANGLE_UNIT ( ) );
#213 = DIRECTION ( 'NONE',  ( 1.000000000000000000, 0.000000000000000000, 0.000000000000000000 ) ) ;
#214 = DATE_TIME_ROLE ( 'creation_date' ) ;
#215 = CARTESIAN_POINT ( 'NONE',  ( 0.000000000000000000, 0.000000000000000000, 3.000000000000000000 ) ) ;
#216 = AXIS2_PLACEMENT_3D ( 'NONE', #227, #24, #213 ) ;
#217 = COORDINATED_UNIVERSAL_TIME_OFFSET ( 1, 0, .AHEAD. ) ;
#218 = EDGE_CURVE ( 'NONE', #91, #187, #245, .T. ) ;
#219 = COORDINATED_UNIVERSAL_TIME_OFFSET ( 1, 0, .AHEAD. ) ;
#220 = PRODUCT ( '4098', '4098', '', ( #196 ) ) ;
#221 = DIRECTION ( 'NONE',  ( 0.000000000000000000, 0.000000000000000000, 1.000000000000000000 ) ) ;
#222 = CARTESIAN_POINT ( 'NONE',  ( 0.000000000000000000, 0.000000000000000000, 400.0000000000000000 ) ) ;
#223 = LOCAL_TIME ( 16, 5, 33.00000000000000000, #45 ) ;
#224 = APPLICATION_PROTOCOL_DEFINITION ( 'international standard', 'config_control_design', 1994, #239 ) ;
#225 = VERTEX_POINT ( 'NONE', #165 ) ;
#226 = PERSON_AND_ORGANIZATION ( #102, #14 ) ;
#227 = CARTESIAN_POINT ( 'NONE',  ( 0.000000000000000000, 0.000000000000000000, 400.0000000000000000 ) ) ;
#228 = FACE_OUTER_BOUND ( 'NONE', #198, .T. ) ;
#229 = AXIS2_PLACEMENT_3D ( 'NONE', #231, #80, #75 ) ;
#230 = ADVANCED_FACE ( 'NONE', ( #100, #25 ), #181, .T. ) ;
#231 = CARTESIAN_POINT ( 'NONE',  ( 0.000000000000000000, 0.000000000000000000, 0.000000000000000000 ) ) ;
#232 = APPROVAL_ROLE ( '' ) ;
#233 = DIRECTION ( 'NONE',  ( 1.000000000000000000, 0.000000000000000000, -0.000000000000000000 ) ) ;
#234 = ADVANCED_BREP_SHAPE_REPRESENTATION ( '4098', ( #236, #92 ), #3 ) ;
#235 = PLANE ( 'NONE',  #124 ) ;
#236 = MANIFOLD_SOLID_BREP ( 'Pøidat vysunutím3', #95 ) ;
#237 = ORIENTED_EDGE ( 'NONE', *, *, #178, .T. ) ;
#238 = DATE_AND_TIME ( #255, #126 ) ;
#239 = APPLICATION_CONTEXT ( 'configuration controlled 3d designs of mechanical parts and assemblies' ) ;
#240 = ADVANCED_FACE ( 'NONE', ( #209 ), #31, .T. ) ;
#241 = UNCERTAINTY_MEASURE_WITH_UNIT (LENGTH_MEASURE( 1.000000000000000082E-05 ), #64, 'distance_accuracy_value', 'NONE');
#242 = APPROVAL ( #49, 'NEURÈENÝ' ) ;
#243 = CARTESIAN_POINT ( 'NONE',  ( -4.000000000000000000, 0.000000000000000000, 3.000000000000000000 ) ) ;
#244 = ORIENTED_EDGE ( 'NONE', *, *, #50, .F. ) ;
#245 = CIRCLE ( 'NONE', #173, 4.000000000000000000 ) ;
#246 = EDGE_CURVE ( 'NONE', #168, #73, #54, .T. ) ;
#247 = DIRECTION ( 'NONE',  ( 1.000000000000000000, 0.000000000000000000, 0.000000000000000000 ) ) ;
#248 = PERSON_AND_ORGANIZATION ( #102, #14 ) ;
#249 = CIRCLE ( 'NONE', #151, 2.100000000000000089 ) ;
#250 = APPROVAL ( #20, 'NEURÈENÝ' ) ;
#251 = LINE ( 'NONE', #162, #5 ) ;
#252 = APPROVAL_PERSON_ORGANIZATION ( #150, #242, #48 ) ;
#253 = PERSON_AND_ORGANIZATION ( #102, #14 ) ;
#254 = CARTESIAN_POINT ( 'NONE',  ( 0.000000000000000000, 0.000000000000000000, 3.000000000000000000 ) ) ;
#255 = CALENDAR_DATE ( 2023, 13, 2 ) ;
ENDSEC;
END-ISO-10303-21;
