ISO-10303-21;
HEADER;
FILE_DESCRIPTION (( 'STEP AP203' ),
    '1' );
FILE_NAME ('e258.STEP',
    '2023-02-13T13:36:42',
    ( '' ),
    ( '' ),
    'SwSTEP 2.0',
    'SolidWorks 2019',
    '' );
FILE_SCHEMA (( 'CONFIG_CONTROL_DESIGN' ));
ENDSEC;

DATA;
#1 = ORIENTED_EDGE ( 'NONE', *, *, #205, .T. ) ;
#2 = DIRECTION ( 'NONE',  ( 1.000000000000000000, 0.000000000000000000, 0.000000000000000000 ) ) ;
#3 = VECTOR ( 'NONE', #222, 1000.000000000000000 ) ;
#4 = LINE ( 'NONE', #135, #179 ) ;
#5 = DATE_AND_TIME ( #72, #141 ) ;
#6 = CARTESIAN_POINT ( 'NONE',  ( -3.500000000000000000, 0.000000000000000000, 125.0000000000000000 ) ) ;
#7 = APPROVAL_DATE_TIME ( #126, #153 ) ;
#8 = AXIS2_PLACEMENT_3D ( 'NONE', #38, #81, #46 ) ;
#9 = CARTESIAN_POINT ( 'NONE',  ( -3.500000000000000000, 0.000000000000000000, 125.0000000000000000 ) ) ;
#10 = CARTESIAN_POINT ( 'NONE',  ( 6.000000000000000888, 7.347880794884120722E-16, 5.000000000000000000 ) ) ;
#11 = PERSON_AND_ORGANIZATION ( #173, #106 ) ;
#12 = CARTESIAN_POINT ( 'NONE',  ( 0.000000000000000000, 0.000000000000000000, 125.0000000000000000 ) ) ;
#13 = CIRCLE ( 'NONE', #255, 3.500000000000000000 ) ;
#14 = PERSON_AND_ORGANIZATION ( #173, #106 ) ;
#15 = EDGE_CURVE ( 'NONE', #252, #36, #168, .T. ) ;
#16 = APPROVAL_PERSON_ORGANIZATION ( #87, #151, #194 ) ;
#17 = LOCAL_TIME ( 14, 36, 42.00000000000000000, #176 ) ;
#18 = CC_DESIGN_DATE_AND_TIME_ASSIGNMENT ( #114, #164, ( #58 ) ) ;
#19 = EDGE_LOOP ( 'NONE', ( #99, #20, #83, #146 ) ) ;
#20 = ORIENTED_EDGE ( 'NONE', *, *, #118, .T. ) ;
#21 = ORIENTED_EDGE ( 'NONE', *, *, #143, .F. ) ;
#22 = CARTESIAN_POINT ( 'NONE',  ( 0.000000000000000000, 0.000000000000000000, 125.0000000000000000 ) ) ;
#23 = CIRCLE ( 'NONE', #209, 6.000000000000000888 ) ;
#24 = ADVANCED_BREP_SHAPE_REPRESENTATION ( 'e258', ( #147, #120 ), #43 ) ;
#25 = PLANE ( 'NONE',  #206 ) ;
#26 = EDGE_CURVE ( 'NONE', #119, #210, #86, .T. ) ;
#27 = APPROVAL_STATUS ( 'not_yet_approved' ) ;
#28 = DIRECTION ( 'NONE',  ( -0.000000000000000000, -0.000000000000000000, -1.000000000000000000 ) ) ;
#29 = CARTESIAN_POINT ( 'NONE',  ( 0.000000000000000000, 0.000000000000000000, 125.0000000000000000 ) ) ;
#30 = PERSON_AND_ORGANIZATION ( #173, #106 ) ;
#31 = DIRECTION ( 'NONE',  ( -1.000000000000000000, 0.000000000000000000, 0.000000000000000000 ) ) ;
#32 = CARTESIAN_POINT ( 'NONE',  ( 0.000000000000000000, 0.000000000000000000, 5.000000000000000000 ) ) ;
#33 = DIRECTION ( 'NONE',  ( 0.000000000000000000, 0.000000000000000000, 1.000000000000000000 ) ) ;
#34 = CIRCLE ( 'NONE', #144, 6.000000000000000888 ) ;
#35 = ADVANCED_FACE ( 'NONE', ( #167 ), #41, .T. ) ;
#36 = VERTEX_POINT ( 'NONE', #104 ) ;
#37 = CC_DESIGN_APPROVAL ( #151, ( #200 ) ) ;
#38 = CARTESIAN_POINT ( 'NONE',  ( 0.000000000000000000, 0.000000000000000000, 125.0000000000000000 ) ) ;
#39 = EDGE_LOOP ( 'NONE', ( #188, #96 ) ) ;
#40 = EDGE_LOOP ( 'NONE', ( #149, #63, #116, #213 ) ) ;
#41 = CYLINDRICAL_SURFACE ( 'NONE', #8, 3.500000000000000000 ) ;
#42 = CC_DESIGN_PERSON_AND_ORGANIZATION_ASSIGNMENT ( #11, #231, ( #58 ) ) ;
#43 =( GEOMETRIC_REPRESENTATION_CONTEXT ( 3 ) GLOBAL_UNCERTAINTY_ASSIGNED_CONTEXT ( ( #192 ) ) GLOBAL_UNIT_ASSIGNED_CONTEXT ( ( #232, #59, #248 ) ) REPRESENTATION_CONTEXT ( 'NONE', 'WORKASPACE' ) );
#44 = CC_DESIGN_APPROVAL ( #153, ( #97 ) ) ;
#45 = EDGE_CURVE ( 'NONE', #117, #132, #62, .T. ) ;
#46 = DIRECTION ( 'NONE',  ( -1.000000000000000000, 0.000000000000000000, 0.000000000000000000 ) ) ;
#47 = PERSON_AND_ORGANIZATION ( #173, #106 ) ;
#48 = CARTESIAN_POINT ( 'NONE',  ( 0.000000000000000000, 0.000000000000000000, 5.000000000000000000 ) ) ;
#49 = CALENDAR_DATE ( 2023, 13, 2 ) ;
#50 = CARTESIAN_POINT ( 'NONE',  ( 0.000000000000000000, 0.000000000000000000, 0.000000000000000000 ) ) ;
#51 = AXIS2_PLACEMENT_3D ( 'NONE', #75, #154, #195 ) ;
#52 = CARTESIAN_POINT ( 'NONE',  ( -6.000000000000000888, 0.000000000000000000, 5.000000000000000000 ) ) ;
#53 = CALENDAR_DATE ( 2023, 13, 2 ) ;
#54 = CARTESIAN_POINT ( 'NONE',  ( -6.000000000000000888, 0.000000000000000000, 0.000000000000000000 ) ) ;
#55 = CARTESIAN_POINT ( 'NONE',  ( 0.000000000000000000, 0.000000000000000000, 0.000000000000000000 ) ) ;
#56 = DATE_AND_TIME ( #76, #186 ) ;
#57 = FACE_BOUND ( 'NONE', #234, .T. ) ;
#58 = SECURITY_CLASSIFICATION ( '', '', #181 ) ;
#59 =( NAMED_UNIT ( * ) PLANE_ANGLE_UNIT ( ) SI_UNIT ( $, .RADIAN. ) );
#60 = PRODUCT_DEFINITION_SHAPE ( 'NONE', 'NONE',  #200 ) ;
#61 = ORIENTED_EDGE ( 'NONE', *, *, #221, .T. ) ;
#62 = CIRCLE ( 'NONE', #51, 6.000000000000000888 ) ;
#63 = ORIENTED_EDGE ( 'NONE', *, *, #143, .T. ) ;
#64 = ORIENTED_EDGE ( 'NONE', *, *, #184, .F. ) ;
#65 = ORIENTED_EDGE ( 'NONE', *, *, #15, .T. ) ;
#66 = CC_DESIGN_PERSON_AND_ORGANIZATION_ASSIGNMENT ( #247, #78, ( #187 ) ) ;
#67 = CC_DESIGN_PERSON_AND_ORGANIZATION_ASSIGNMENT ( #198, #178, ( #97 ) ) ;
#68 = DIRECTION ( 'NONE',  ( 1.000000000000000000, 0.000000000000000000, 0.000000000000000000 ) ) ;
#69 = VECTOR ( 'NONE', #238, 1000.000000000000000 ) ;
#70 = DIRECTION ( 'NONE',  ( 0.000000000000000000, 0.000000000000000000, 1.000000000000000000 ) ) ;
#71 = FACE_OUTER_BOUND ( 'NONE', #40, .T. ) ;
#72 = CALENDAR_DATE ( 2023, 13, 2 ) ;
#73 = CC_DESIGN_PERSON_AND_ORGANIZATION_ASSIGNMENT ( #47, #124, ( #200 ) ) ;
#74 = FACE_OUTER_BOUND ( 'NONE', #39, .T. ) ;
#75 = CARTESIAN_POINT ( 'NONE',  ( 0.000000000000000000, 0.000000000000000000, 5.000000000000000000 ) ) ;
#76 = CALENDAR_DATE ( 2023, 13, 2 ) ;
#77 = ADVANCED_FACE ( 'NONE', ( #71 ), #155, .T. ) ;
#78 = PERSON_AND_ORGANIZATION_ROLE ( 'design_owner' ) ;
#79 = APPROVAL_ROLE ( '' ) ;
#80 = AXIS2_PLACEMENT_3D ( 'NONE', #12, #241, #93 ) ;
#81 = DIRECTION ( 'NONE',  ( -0.000000000000000000, -0.000000000000000000, -1.000000000000000000 ) ) ;
#82 = APPROVAL_PERSON_ORGANIZATION ( #14, #227, #79 ) ;
#83 = ORIENTED_EDGE ( 'NONE', *, *, #105, .T. ) ;
#84 = CC_DESIGN_DATE_AND_TIME_ASSIGNMENT ( #220, #196, ( #200 ) ) ;
#85 = DIRECTION ( 'NONE',  ( 0.000000000000000000, 0.000000000000000000, 1.000000000000000000 ) ) ;
#86 = CIRCLE ( 'NONE', #172, 3.500000000000000000 ) ;
#87 = PERSON_AND_ORGANIZATION ( #173, #106 ) ;
#88 = CARTESIAN_POINT ( 'NONE',  ( 0.000000000000000000, 0.000000000000000000, 0.000000000000000000 ) ) ;
#89 = CARTESIAN_POINT ( 'NONE',  ( -3.500000000000000000, 0.000000000000000000, 5.000000000000000000 ) ) ;
#90 = DIRECTION ( 'NONE',  ( -0.000000000000000000, -0.000000000000000000, -1.000000000000000000 ) ) ;
#91 = EDGE_CURVE ( 'NONE', #132, #236, #217, .T. ) ;
#92 = DIRECTION ( 'NONE',  ( -1.000000000000000000, 0.000000000000000000, 0.000000000000000000 ) ) ;
#93 = DIRECTION ( 'NONE',  ( 1.000000000000000000, 0.000000000000000000, 0.000000000000000000 ) ) ;
#94 = COORDINATED_UNIVERSAL_TIME_OFFSET ( 1, 0, .AHEAD. ) ;
#95 = ORIENTED_EDGE ( 'NONE', *, *, #212, .T. ) ;
#96 = ORIENTED_EDGE ( 'NONE', *, *, #105, .F. ) ;
#97 = PRODUCT_DEFINITION_FORMATION_WITH_SPECIFIED_SOURCE ( 'LIBOVOLNÝ', '', #187, .NOT_KNOWN. ) ;
#98 = ADVANCED_FACE ( 'NONE', ( #203 ), #107, .T. ) ;
#99 = ORIENTED_EDGE ( 'NONE', *, *, #45, .F. ) ;
#100 = EDGE_LOOP ( 'NONE', ( #65, #95 ) ) ;
#101 = APPLICATION_PROTOCOL_DEFINITION ( 'international standard', 'config_control_design', 1994, #122 ) ;
#102 = DIRECTION ( 'NONE',  ( 1.000000000000000000, 0.000000000000000000, -0.000000000000000000 ) ) ;
#103 = APPROVAL_ROLE ( '' ) ;
#104 = CARTESIAN_POINT ( 'NONE',  ( 3.500000000000000000, 4.286263797015736595E-16, 125.0000000000000000 ) ) ;
#105 = EDGE_CURVE ( 'NONE', #211, #236, #34, .T. ) ;
#106 = ORGANIZATION ( 'NEURÈENÝ', 'NEURÈENÝ', '' ) ;
#107 = CYLINDRICAL_SURFACE ( 'NONE', #161, 6.000000000000000888 ) ;
#108 = PERSON_AND_ORGANIZATION_ROLE ( 'design_supplier' ) ;
#109 = DIRECTION ( 'NONE',  ( 1.000000000000000000, 0.000000000000000000, 0.000000000000000000 ) ) ;
#110 = CARTESIAN_POINT ( 'NONE',  ( 6.000000000000000888, 7.347880794884120722E-16, 5.000000000000000000 ) ) ;
#111 = AXIS2_PLACEMENT_3D ( 'NONE', #29, #28, #92 ) ;
#112 = DIRECTION ( 'NONE',  ( 1.000000000000000000, 0.000000000000000000, 0.000000000000000000 ) ) ;
#113 = CARTESIAN_POINT ( 'NONE',  ( 0.000000000000000000, 0.000000000000000000, 5.000000000000000000 ) ) ;
#114 = DATE_AND_TIME ( #53, #183 ) ;
#115 = CIRCLE ( 'NONE', #148, 6.000000000000000888 ) ;
#116 = ORIENTED_EDGE ( 'NONE', *, *, #26, .T. ) ;
#117 = VERTEX_POINT ( 'NONE', #10 ) ;
#118 = EDGE_CURVE ( 'NONE', #117, #211, #123, .T. ) ;
#119 = VERTEX_POINT ( 'NONE', #138 ) ;
#120 = AXIS2_PLACEMENT_3D ( 'NONE', #55, #204, #112 ) ;
#121 = ORIENTED_EDGE ( 'NONE', *, *, #221, .F. ) ;
#122 = APPLICATION_CONTEXT ( 'configuration controlled 3d designs of mechanical parts and assemblies' ) ;
#123 = LINE ( 'NONE', #110, #69 ) ;
#124 = PERSON_AND_ORGANIZATION_ROLE ( 'creator' ) ;
#125 = DIRECTION ( 'NONE',  ( 0.000000000000000000, 0.000000000000000000, 1.000000000000000000 ) ) ;
#126 = DATE_AND_TIME ( #49, #17 ) ;
#127 = DIRECTION ( 'NONE',  ( 0.000000000000000000, 0.000000000000000000, 1.000000000000000000 ) ) ;
#128 = PERSON_AND_ORGANIZATION ( #173, #106 ) ;
#129 = DIRECTION ( 'NONE',  ( 0.000000000000000000, 0.000000000000000000, 1.000000000000000000 ) ) ;
#130 = CARTESIAN_POINT ( 'NONE',  ( 0.000000000000000000, 0.000000000000000000, 0.000000000000000000 ) ) ;
#131 = CARTESIAN_POINT ( 'NONE',  ( 0.000000000000000000, 0.000000000000000000, 5.000000000000000000 ) ) ;
#132 = VERTEX_POINT ( 'NONE', #158 ) ;
#133 = ORIENTED_EDGE ( 'NONE', *, *, #45, .T. ) ;
#134 = ORIENTED_EDGE ( 'NONE', *, *, #242, .T. ) ;
#135 = CARTESIAN_POINT ( 'NONE',  ( 3.500000000000000000, 4.286263797015736595E-16, 125.0000000000000000 ) ) ;
#136 = ADVANCED_FACE ( 'NONE', ( #244 ), #25, .T. ) ;
#137 = DIRECTION ( 'NONE',  ( -0.000000000000000000, -0.000000000000000000, -1.000000000000000000 ) ) ;
#138 = CARTESIAN_POINT ( 'NONE',  ( 3.500000000000000000, 4.286263797015736595E-16, 5.000000000000000000 ) ) ;
#139 = CALENDAR_DATE ( 2023, 13, 2 ) ;
#140 = DIRECTION ( 'NONE',  ( 0.000000000000000000, 0.000000000000000000, 1.000000000000000000 ) ) ;
#141 = LOCAL_TIME ( 14, 36, 42.00000000000000000, #174 ) ;
#142 = DIRECTION ( 'NONE',  ( 1.000000000000000000, 0.000000000000000000, 0.000000000000000000 ) ) ;
#143 = EDGE_CURVE ( 'NONE', #36, #119, #4, .T. ) ;
#144 = AXIS2_PLACEMENT_3D ( 'NONE', #50, #180, #109 ) ;
#145 = ADVANCED_FACE ( 'NONE', ( #74 ), #199, .F. ) ;
#146 = ORIENTED_EDGE ( 'NONE', *, *, #91, .F. ) ;
#147 = MANIFOLD_SOLID_BREP ( 'Pøidat vysunutím3', #249 ) ;
#148 = AXIS2_PLACEMENT_3D ( 'NONE', #130, #125, #197 ) ;
#149 = ORIENTED_EDGE ( 'NONE', *, *, #212, .F. ) ;
#150 = ORIENTED_EDGE ( 'NONE', *, *, #15, .F. ) ;
#151 = APPROVAL ( #216, 'NEURÈENÝ' ) ;
#152 = DESIGN_CONTEXT ( 'detailed design', #122, 'design' ) ;
#153 = APPROVAL ( #27, 'NEURÈENÝ' ) ;
#154 = DIRECTION ( 'NONE',  ( 0.000000000000000000, 0.000000000000000000, 1.000000000000000000 ) ) ;
#155 = CYLINDRICAL_SURFACE ( 'NONE', #111, 3.500000000000000000 ) ;
#156 = AXIS2_PLACEMENT_3D ( 'NONE', #113, #33, #230 ) ;
#157 = DIRECTION ( 'NONE',  ( 1.000000000000000000, 0.000000000000000000, -0.000000000000000000 ) ) ;
#158 = CARTESIAN_POINT ( 'NONE',  ( -6.000000000000000888, 0.000000000000000000, 5.000000000000000000 ) ) ;
#159 = CARTESIAN_POINT ( 'NONE',  ( 0.000000000000000000, 0.000000000000000000, 5.000000000000000000 ) ) ;
#160 = APPROVAL_STATUS ( 'not_yet_approved' ) ;
#161 = AXIS2_PLACEMENT_3D ( 'NONE', #32, #90, #31 ) ;
#162 = APPROVAL_PERSON_ORGANIZATION ( #128, #153, #103 ) ;
#163 = SHAPE_DEFINITION_REPRESENTATION ( #60, #24 ) ;
#164 = DATE_TIME_ROLE ( 'classification_date' ) ;
#165 = APPLICATION_PROTOCOL_DEFINITION ( 'international standard', 'config_control_design', 1994, #215 ) ;
#166 = ORIENTED_EDGE ( 'NONE', *, *, #26, .F. ) ;
#167 = FACE_OUTER_BOUND ( 'NONE', #254, .T. ) ;
#168 = CIRCLE ( 'NONE', #214, 3.500000000000000000 ) ;
#169 = ORIENTED_EDGE ( 'NONE', *, *, #184, .T. ) ;
#170 = ORIENTED_EDGE ( 'NONE', *, *, #91, .T. ) ;
#171 = PRODUCT_RELATED_PRODUCT_CATEGORY ( 'detail', '', ( #187 ) ) ;
#172 = AXIS2_PLACEMENT_3D ( 'NONE', #131, #208, #233 ) ;
#173 = PERSON ( 'NEURÈENÝ', 'NEURÈENÝ', 'NEURÈENÝ', ('NEURÈENÝ'), ('NEURÈENÝ'), ('NEURÈENÝ') ) ;
#174 = COORDINATED_UNIVERSAL_TIME_OFFSET ( 1, 0, .AHEAD. ) ;
#175 = LINE ( 'NONE', #6, #193 ) ;
#176 = COORDINATED_UNIVERSAL_TIME_OFFSET ( 1, 0, .AHEAD. ) ;
#177 = CYLINDRICAL_SURFACE ( 'NONE', #240, 6.000000000000000888 ) ;
#178 = PERSON_AND_ORGANIZATION_ROLE ( 'creator' ) ;
#179 = VECTOR ( 'NONE', #137, 1000.000000000000000 ) ;
#180 = DIRECTION ( 'NONE',  ( 0.000000000000000000, 0.000000000000000000, 1.000000000000000000 ) ) ;
#181 = SECURITY_CLASSIFICATION_LEVEL ( 'unclassified' ) ;
#182 = CARTESIAN_POINT ( 'NONE',  ( 6.000000000000000888, 7.347880794884120722E-16, 0.000000000000000000 ) ) ;
#183 = LOCAL_TIME ( 14, 36, 42.00000000000000000, #185 ) ;
#184 = EDGE_CURVE ( 'NONE', #132, #117, #23, .T. ) ;
#185 = COORDINATED_UNIVERSAL_TIME_OFFSET ( 1, 0, .AHEAD. ) ;
#186 = LOCAL_TIME ( 14, 36, 42.00000000000000000, #94 ) ;
#187 = PRODUCT ( 'e258', 'e258', '', ( #250 ) ) ;
#188 = ORIENTED_EDGE ( 'NONE', *, *, #242, .F. ) ;
#189 = EDGE_LOOP ( 'NONE', ( #191, #64, #170, #134 ) ) ;
#190 = EDGE_LOOP ( 'NONE', ( #169, #133 ) ) ;
#191 = ORIENTED_EDGE ( 'NONE', *, *, #118, .F. ) ;
#192 = UNCERTAINTY_MEASURE_WITH_UNIT (LENGTH_MEASURE( 1.000000000000000082E-05 ), #232, 'distance_accuracy_value', 'NONE');
#193 = VECTOR ( 'NONE', #202, 1000.000000000000000 ) ;
#194 = APPROVAL_ROLE ( '' ) ;
#195 = DIRECTION ( 'NONE',  ( 1.000000000000000000, 0.000000000000000000, 0.000000000000000000 ) ) ;
#196 = DATE_TIME_ROLE ( 'creation_date' ) ;
#197 = DIRECTION ( 'NONE',  ( 1.000000000000000000, 0.000000000000000000, 0.000000000000000000 ) ) ;
#198 = PERSON_AND_ORGANIZATION ( #173, #106 ) ;
#199 = PLANE ( 'NONE',  #225 ) ;
#200 = PRODUCT_DEFINITION ( 'NEZNÁMÝ', '', #97, #152 ) ;
#201 = CIRCLE ( 'NONE', #80, 3.500000000000000000 ) ;
#202 = DIRECTION ( 'NONE',  ( -0.000000000000000000, -0.000000000000000000, -1.000000000000000000 ) ) ;
#203 = FACE_OUTER_BOUND ( 'NONE', #189, .T. ) ;
#204 = DIRECTION ( 'NONE',  ( 0.000000000000000000, 0.000000000000000000, 1.000000000000000000 ) ) ;
#205 = EDGE_CURVE ( 'NONE', #252, #210, #175, .T. ) ;
#206 = AXIS2_PLACEMENT_3D ( 'NONE', #243, #127, #157 ) ;
#207 = PLANE ( 'NONE',  #156 ) ;
#208 = DIRECTION ( 'NONE',  ( 0.000000000000000000, 0.000000000000000000, 1.000000000000000000 ) ) ;
#209 = AXIS2_PLACEMENT_3D ( 'NONE', #224, #129, #68 ) ;
#210 = VERTEX_POINT ( 'NONE', #89 ) ;
#211 = VERTEX_POINT ( 'NONE', #182 ) ;
#212 = EDGE_CURVE ( 'NONE', #36, #252, #201, .T. ) ;
#213 = ORIENTED_EDGE ( 'NONE', *, *, #205, .F. ) ;
#214 = AXIS2_PLACEMENT_3D ( 'NONE', #22, #85, #2 ) ;
#215 = APPLICATION_CONTEXT ( 'configuration controlled 3d designs of mechanical parts and assemblies' ) ;
#216 = APPROVAL_STATUS ( 'not_yet_approved' ) ;
#217 = LINE ( 'NONE', #52, #3 ) ;
#218 = CC_DESIGN_SECURITY_CLASSIFICATION ( #58, ( #97 ) ) ;
#219 = FACE_OUTER_BOUND ( 'NONE', #19, .T. ) ;
#220 = DATE_AND_TIME ( #139, #237 ) ;
#221 = EDGE_CURVE ( 'NONE', #210, #119, #13, .T. ) ;
#222 = DIRECTION ( 'NONE',  ( -0.000000000000000000, -0.000000000000000000, -1.000000000000000000 ) ) ;
#223 = COORDINATED_UNIVERSAL_TIME_OFFSET ( 1, 0, .AHEAD. ) ;
#224 = CARTESIAN_POINT ( 'NONE',  ( 0.000000000000000000, 0.000000000000000000, 5.000000000000000000 ) ) ;
#225 = AXIS2_PLACEMENT_3D ( 'NONE', #88, #140, #102 ) ;
#226 = CC_DESIGN_APPROVAL ( #227, ( #58 ) ) ;
#227 = APPROVAL ( #160, 'NEURÈENÝ' ) ;
#228 = DIRECTION ( 'NONE',  ( -1.000000000000000000, 0.000000000000000000, 0.000000000000000000 ) ) ;
#229 = FACE_OUTER_BOUND ( 'NONE', #190, .T. ) ;
#230 = DIRECTION ( 'NONE',  ( 1.000000000000000000, 0.000000000000000000, -0.000000000000000000 ) ) ;
#231 = PERSON_AND_ORGANIZATION_ROLE ( 'classification_officer' ) ;
#232 =( LENGTH_UNIT ( ) NAMED_UNIT ( * ) SI_UNIT ( .MILLI., .METRE. ) );
#233 = DIRECTION ( 'NONE',  ( 1.000000000000000000, 0.000000000000000000, 0.000000000000000000 ) ) ;
#234 = EDGE_LOOP ( 'NONE', ( #121, #166 ) ) ;
#235 = ADVANCED_FACE ( 'NONE', ( #219 ), #177, .T. ) ;
#236 = VERTEX_POINT ( 'NONE', #54 ) ;
#237 = LOCAL_TIME ( 14, 36, 42.00000000000000000, #223 ) ;
#238 = DIRECTION ( 'NONE',  ( -0.000000000000000000, -0.000000000000000000, -1.000000000000000000 ) ) ;
#239 = APPROVAL_DATE_TIME ( #5, #151 ) ;
#240 = AXIS2_PLACEMENT_3D ( 'NONE', #48, #245, #228 ) ;
#241 = DIRECTION ( 'NONE',  ( 0.000000000000000000, 0.000000000000000000, 1.000000000000000000 ) ) ;
#242 = EDGE_CURVE ( 'NONE', #236, #211, #115, .T. ) ;
#243 = CARTESIAN_POINT ( 'NONE',  ( 0.000000000000000000, 0.000000000000000000, 125.0000000000000000 ) ) ;
#244 = FACE_OUTER_BOUND ( 'NONE', #100, .T. ) ;
#245 = DIRECTION ( 'NONE',  ( -0.000000000000000000, -0.000000000000000000, -1.000000000000000000 ) ) ;
#246 = APPROVAL_DATE_TIME ( #56, #227 ) ;
#247 = PERSON_AND_ORGANIZATION ( #173, #106 ) ;
#248 =( NAMED_UNIT ( * ) SI_UNIT ( $, .STERADIAN. ) SOLID_ANGLE_UNIT ( ) );
#249 = CLOSED_SHELL ( 'NONE', ( #77, #235, #98, #253, #145, #35, #136 ) ) ;
#250 = MECHANICAL_CONTEXT ( 'NONE', #215, 'mechanical' ) ;
#251 = CC_DESIGN_PERSON_AND_ORGANIZATION_ASSIGNMENT ( #30, #108, ( #97 ) ) ;
#252 = VERTEX_POINT ( 'NONE', #9 ) ;
#253 = ADVANCED_FACE ( 'NONE', ( #57, #229 ), #207, .T. ) ;
#254 = EDGE_LOOP ( 'NONE', ( #21, #150, #1, #61 ) ) ;
#255 = AXIS2_PLACEMENT_3D ( 'NONE', #159, #70, #142 ) ;
ENDSEC;
END-ISO-10303-21;
