ISO-10303-21;
HEADER;
FILE_DESCRIPTION (( 'STEP AP203' ),
    '1' );
FILE_NAME ('9bbc.STEP',
    '2023-02-13T10:19:36',
    ( '' ),
    ( '' ),
    'SwSTEP 2.0',
    'SolidWorks 2019',
    '' );
FILE_SCHEMA (( 'CONFIG_CONTROL_DESIGN' ));
ENDSEC;

DATA;
#1 = EDGE_CURVE ( 'NONE', #105, #116, #18, .T. ) ;
#2 = CARTESIAN_POINT ( 'NONE',  ( 10.00000000000000000, 1.224646799147353256E-15, 7.000000000000000000 ) ) ;
#3 = DIRECTION ( 'NONE',  ( 1.000000000000000000, 0.000000000000000000, 0.000000000000000000 ) ) ;
#4 = DIRECTION ( 'NONE',  ( 1.000000000000000000, 0.000000000000000000, 0.000000000000000000 ) ) ;
#5 = CARTESIAN_POINT ( 'NONE',  ( 0.000000000000000000, 0.000000000000000000, 0.000000000000000000 ) ) ;
#6 = DIRECTION ( 'NONE',  ( 0.000000000000000000, 0.000000000000000000, 1.000000000000000000 ) ) ;
#7 = ORIENTED_EDGE ( 'NONE', *, *, #246, .F. ) ;
#8 = DIRECTION ( 'NONE',  ( 1.000000000000000000, 0.000000000000000000, -0.000000000000000000 ) ) ;
#9 = PRODUCT_DEFINITION_FORMATION_WITH_SPECIFIED_SOURCE ( 'LIBOVOLNÝ', '', #152, .NOT_KNOWN. ) ;
#10 = EDGE_LOOP ( 'NONE', ( #167, #184 ) ) ;
#11 = CARTESIAN_POINT ( 'NONE',  ( 0.000000000000000000, 0.000000000000000000, 500.0000000000000000 ) ) ;
#12 = AXIS2_PLACEMENT_3D ( 'NONE', #33, #193, #236 ) ;
#13 = VERTEX_POINT ( 'NONE', #215 ) ;
#14 = AXIS2_PLACEMENT_3D ( 'NONE', #39, #62, #101 ) ;
#15 = APPROVAL_PERSON_ORGANIZATION ( #31, #145, #124 ) ;
#16 = EDGE_CURVE ( 'NONE', #105, #104, #212, .T. ) ;
#17 = DIRECTION ( 'NONE',  ( -0.000000000000000000, -0.000000000000000000, -1.000000000000000000 ) ) ;
#18 = LINE ( 'NONE', #55, #28 ) ;
#19 = COORDINATED_UNIVERSAL_TIME_OFFSET ( 1, 0, .AHEAD. ) ;
#20 = EDGE_LOOP ( 'NONE', ( #99, #128, #255, #169 ) ) ;
#21 = PERSON_AND_ORGANIZATION_ROLE ( 'design_supplier' ) ;
#22 = CYLINDRICAL_SURFACE ( 'NONE', #188, 6.000000000000000888 ) ;
#23 = PERSON_AND_ORGANIZATION_ROLE ( 'creator' ) ;
#24 = APPLICATION_CONTEXT ( 'configuration controlled 3d designs of mechanical parts and assemblies' ) ;
#25 = PERSON_AND_ORGANIZATION ( #77, #147 ) ;
#26 = FACE_OUTER_BOUND ( 'NONE', #141, .T. ) ;
#27 = VECTOR ( 'NONE', #139, 1000.000000000000000 ) ;
#28 = VECTOR ( 'NONE', #17, 1000.000000000000000 ) ;
#29 = ORIENTED_EDGE ( 'NONE', *, *, #217, .F. ) ;
#30 = ADVANCED_FACE ( 'NONE', ( #177 ), #22, .T. ) ;
#31 = PERSON_AND_ORGANIZATION ( #77, #147 ) ;
#32 = CARTESIAN_POINT ( 'NONE',  ( 0.000000000000000000, 0.000000000000000000, 7.000000000000000000 ) ) ;
#33 = CARTESIAN_POINT ( 'NONE',  ( 0.000000000000000000, 0.000000000000000000, 500.0000000000000000 ) ) ;
#34 = CIRCLE ( 'NONE', #14, 10.00000000000000000 ) ;
#35 = UNCERTAINTY_MEASURE_WITH_UNIT (LENGTH_MEASURE( 1.000000000000000082E-05 ), #226, 'distance_accuracy_value', 'NONE');
#36 = CARTESIAN_POINT ( 'NONE',  ( 10.00000000000000000, 1.224646799147353256E-15, 0.000000000000000000 ) ) ;
#37 = AXIS2_PLACEMENT_3D ( 'NONE', #202, #222, #3 ) ;
#38 = CC_DESIGN_DATE_AND_TIME_ASSIGNMENT ( #150, #237, ( #168 ) ) ;
#39 = CARTESIAN_POINT ( 'NONE',  ( 0.000000000000000000, 0.000000000000000000, 0.000000000000000000 ) ) ;
#40 = DATE_AND_TIME ( #45, #100 ) ;
#41 = VECTOR ( 'NONE', #143, 1000.000000000000000 ) ;
#42 = CC_DESIGN_APPROVAL ( #145, ( #168 ) ) ;
#43 = MECHANICAL_CONTEXT ( 'NONE', #24, 'mechanical' ) ;
#44 = CARTESIAN_POINT ( 'NONE',  ( 6.000000000000000888, 7.347880794884120722E-16, 7.000000000000000000 ) ) ;
#45 = CALENDAR_DATE ( 2023, 13, 2 ) ;
#46 = EDGE_LOOP ( 'NONE', ( #206, #90 ) ) ;
#47 = PERSON_AND_ORGANIZATION ( #77, #147 ) ;
#48 = ORIENTED_EDGE ( 'NONE', *, *, #217, .T. ) ;
#49 = CC_DESIGN_DATE_AND_TIME_ASSIGNMENT ( #214, #249, ( #166 ) ) ;
#50 = VERTEX_POINT ( 'NONE', #36 ) ;
#51 = PLANE ( 'NONE',  #72 ) ;
#52 = DIRECTION ( 'NONE',  ( 1.000000000000000000, 0.000000000000000000, 0.000000000000000000 ) ) ;
#53 = CALENDAR_DATE ( 2023, 13, 2 ) ;
#54 = COORDINATED_UNIVERSAL_TIME_OFFSET ( 1, 0, .AHEAD. ) ;
#55 = CARTESIAN_POINT ( 'NONE',  ( -6.000000000000000888, 0.000000000000000000, 500.0000000000000000 ) ) ;
#56 = COORDINATED_UNIVERSAL_TIME_OFFSET ( 1, 0, .AHEAD. ) ;
#57 =( GEOMETRIC_REPRESENTATION_CONTEXT ( 3 ) GLOBAL_UNCERTAINTY_ASSIGNED_CONTEXT ( ( #35 ) ) GLOBAL_UNIT_ASSIGNED_CONTEXT ( ( #226, #85, #186 ) ) REPRESENTATION_CONTEXT ( 'NONE', 'WORKASPACE' ) );
#58 = ORIENTED_EDGE ( 'NONE', *, *, #86, .F. ) ;
#59 = PERSON_AND_ORGANIZATION_ROLE ( 'creator' ) ;
#60 = FACE_BOUND ( 'NONE', #69, .T. ) ;
#61 = APPLICATION_PROTOCOL_DEFINITION ( 'international standard', 'config_control_design', 1994, #67 ) ;
#62 = DIRECTION ( 'NONE',  ( 0.000000000000000000, 0.000000000000000000, 1.000000000000000000 ) ) ;
#63 = CARTESIAN_POINT ( 'NONE',  ( 0.000000000000000000, 0.000000000000000000, 7.000000000000000000 ) ) ;
#64 = LINE ( 'NONE', #156, #27 ) ;
#65 = EDGE_LOOP ( 'NONE', ( #235, #203, #191, #229 ) ) ;
#66 = CC_DESIGN_PERSON_AND_ORGANIZATION_ASSIGNMENT ( #78, #21, ( #9 ) ) ;
#67 = APPLICATION_CONTEXT ( 'configuration controlled 3d designs of mechanical parts and assemblies' ) ;
#68 = CIRCLE ( 'NONE', #209, 6.000000000000000888 ) ;
#69 = EDGE_LOOP ( 'NONE', ( #58, #7 ) ) ;
#70 = ORIENTED_EDGE ( 'NONE', *, *, #97, .T. ) ;
#71 = CALENDAR_DATE ( 2023, 13, 2 ) ;
#72 = AXIS2_PLACEMENT_3D ( 'NONE', #11, #190, #179 ) ;
#73 = DIRECTION ( 'NONE',  ( -1.000000000000000000, 0.000000000000000000, 0.000000000000000000 ) ) ;
#74 = DATE_AND_TIME ( #127, #142 ) ;
#75 = ORIENTED_EDGE ( 'NONE', *, *, #1, .T. ) ;
#76 = EDGE_CURVE ( 'NONE', #144, #120, #176, .T. ) ;
#77 = PERSON ( 'NEURÈENÝ', 'NEURÈENÝ', 'NEURÈENÝ', ('NEURÈENÝ'), ('NEURÈENÝ'), ('NEURÈENÝ') ) ;
#78 = PERSON_AND_ORGANIZATION ( #77, #147 ) ;
#79 = CARTESIAN_POINT ( 'NONE',  ( 0.000000000000000000, 0.000000000000000000, 7.000000000000000000 ) ) ;
#80 = DIRECTION ( 'NONE',  ( 1.000000000000000000, 0.000000000000000000, -0.000000000000000000 ) ) ;
#81 = AXIS2_PLACEMENT_3D ( 'NONE', #134, #6, #164 ) ;
#82 = FACE_OUTER_BOUND ( 'NONE', #102, .T. ) ;
#83 = CARTESIAN_POINT ( 'NONE',  ( -6.000000000000000888, 0.000000000000000000, 7.000000000000000000 ) ) ;
#84 = AXIS2_PLACEMENT_3D ( 'NONE', #210, #172, #252 ) ;
#85 =( NAMED_UNIT ( * ) PLANE_ANGLE_UNIT ( ) SI_UNIT ( $, .RADIAN. ) );
#86 = EDGE_CURVE ( 'NONE', #116, #121, #95, .T. ) ;
#87 = EDGE_LOOP ( 'NONE', ( #207, #247, #75, #232 ) ) ;
#88 = ORIENTED_EDGE ( 'NONE', *, *, #205, .T. ) ;
#89 = APPROVAL_PERSON_ORGANIZATION ( #231, #149, #233 ) ;
#90 = ORIENTED_EDGE ( 'NONE', *, *, #227, .T. ) ;
#91 = SECURITY_CLASSIFICATION_LEVEL ( 'unclassified' ) ;
#92 = CC_DESIGN_APPROVAL ( #107, ( #166 ) ) ;
#93 = CARTESIAN_POINT ( 'NONE',  ( -6.000000000000000888, 0.000000000000000000, 500.0000000000000000 ) ) ;
#94 = APPLICATION_PROTOCOL_DEFINITION ( 'international standard', 'config_control_design', 1994, #24 ) ;
#95 = CIRCLE ( 'NONE', #123, 6.000000000000000888 ) ;
#96 = PLANE ( 'NONE',  #119 ) ;
#97 = EDGE_CURVE ( 'NONE', #50, #13, #248, .T. ) ;
#98 = DIRECTION ( 'NONE',  ( 0.000000000000000000, 0.000000000000000000, 1.000000000000000000 ) ) ;
#99 = ORIENTED_EDGE ( 'NONE', *, *, #205, .F. ) ;
#100 = LOCAL_TIME ( 11, 19, 36.00000000000000000, #243 ) ;
#101 = DIRECTION ( 'NONE',  ( 1.000000000000000000, 0.000000000000000000, 0.000000000000000000 ) ) ;
#102 = EDGE_LOOP ( 'NONE', ( #29, #88, #70, #189 ) ) ;
#103 = AXIS2_PLACEMENT_3D ( 'NONE', #63, #133, #221 ) ;
#104 = VERTEX_POINT ( 'NONE', #146 ) ;
#105 = VERTEX_POINT ( 'NONE', #93 ) ;
#106 = SHAPE_DEFINITION_REPRESENTATION ( #161, #111 ) ;
#107 = APPROVAL ( #223, 'NEURÈENÝ' ) ;
#108 = DATE_AND_TIME ( #216, #251 ) ;
#109 = VECTOR ( 'NONE', #220, 1000.000000000000000 ) ;
#110 = DIRECTION ( 'NONE',  ( 1.000000000000000000, 0.000000000000000000, 0.000000000000000000 ) ) ;
#111 = ADVANCED_BREP_SHAPE_REPRESENTATION ( '9bbc', ( #197, #37 ), #57 ) ;
#112 = CARTESIAN_POINT ( 'NONE',  ( -10.00000000000000000, 0.000000000000000000, 7.000000000000000000 ) ) ;
#113 = CARTESIAN_POINT ( 'NONE',  ( 0.000000000000000000, 0.000000000000000000, 7.000000000000000000 ) ) ;
#114 = DIRECTION ( 'NONE',  ( 0.000000000000000000, 0.000000000000000000, 1.000000000000000000 ) ) ;
#115 = AXIS2_PLACEMENT_3D ( 'NONE', #241, #114, #160 ) ;
#116 = VERTEX_POINT ( 'NONE', #83 ) ;
#117 = DIRECTION ( 'NONE',  ( -1.000000000000000000, 0.000000000000000000, 0.000000000000000000 ) ) ;
#118 = CYLINDRICAL_SURFACE ( 'NONE', #103, 10.00000000000000000 ) ;
#119 = AXIS2_PLACEMENT_3D ( 'NONE', #113, #136, #80 ) ;
#120 = VERTEX_POINT ( 'NONE', #2 ) ;
#121 = VERTEX_POINT ( 'NONE', #44 ) ;
#122 = CIRCLE ( 'NONE', #115, 6.000000000000000888 ) ;
#123 = AXIS2_PLACEMENT_3D ( 'NONE', #79, #230, #52 ) ;
#124 = APPROVAL_ROLE ( '' ) ;
#125 = CC_DESIGN_PERSON_AND_ORGANIZATION_ASSIGNMENT ( #192, #218, ( #168 ) ) ;
#126 = APPROVAL_STATUS ( 'not_yet_approved' ) ;
#127 = CALENDAR_DATE ( 2023, 13, 2 ) ;
#128 = ORIENTED_EDGE ( 'NONE', *, *, #76, .F. ) ;
#129 = ADVANCED_FACE ( 'NONE', ( #82 ), #181, .T. ) ;
#130 = APPROVAL_STATUS ( 'not_yet_approved' ) ;
#131 = CARTESIAN_POINT ( 'NONE',  ( -10.00000000000000000, 0.000000000000000000, 7.000000000000000000 ) ) ;
#132 = CC_DESIGN_APPROVAL ( #149, ( #9 ) ) ;
#133 = DIRECTION ( 'NONE',  ( -0.000000000000000000, -0.000000000000000000, -1.000000000000000000 ) ) ;
#134 = CARTESIAN_POINT ( 'NONE',  ( 0.000000000000000000, 0.000000000000000000, 7.000000000000000000 ) ) ;
#135 = CC_DESIGN_PERSON_AND_ORGANIZATION_ASSIGNMENT ( #25, #158, ( #152 ) ) ;
#136 = DIRECTION ( 'NONE',  ( 0.000000000000000000, 0.000000000000000000, 1.000000000000000000 ) ) ;
#137 = PERSON_AND_ORGANIZATION ( #77, #147 ) ;
#138 = CARTESIAN_POINT ( 'NONE',  ( 0.000000000000000000, 0.000000000000000000, 7.000000000000000000 ) ) ;
#139 = DIRECTION ( 'NONE',  ( -0.000000000000000000, -0.000000000000000000, -1.000000000000000000 ) ) ;
#140 = LINE ( 'NONE', #208, #41 ) ;
#141 = EDGE_LOOP ( 'NONE', ( #165, #48 ) ) ;
#142 = LOCAL_TIME ( 11, 19, 36.00000000000000000, #19 ) ;
#143 = DIRECTION ( 'NONE',  ( -0.000000000000000000, -0.000000000000000000, -1.000000000000000000 ) ) ;
#144 = VERTEX_POINT ( 'NONE', #112 ) ;
#145 = APPROVAL ( #130, 'NEURÈENÝ' ) ;
#146 = CARTESIAN_POINT ( 'NONE',  ( 6.000000000000000888, 7.347880794884120722E-16, 500.0000000000000000 ) ) ;
#147 = ORGANIZATION ( 'NEURÈENÝ', 'NEURÈENÝ', '' ) ;
#148 = DIRECTION ( 'NONE',  ( -0.000000000000000000, -0.000000000000000000, -1.000000000000000000 ) ) ;
#149 = APPROVAL ( #126, 'NEURÈENÝ' ) ;
#150 = DATE_AND_TIME ( #53, #234 ) ;
#151 = AXIS2_PLACEMENT_3D ( 'NONE', #138, #224, #117 ) ;
#152 = PRODUCT ( '9bbc', '9bbc', '', ( #43 ) ) ;
#153 = ADVANCED_FACE ( 'NONE', ( #60, #26 ), #96, .T. ) ;
#154 = CYLINDRICAL_SURFACE ( 'NONE', #183, 6.000000000000000888 ) ;
#155 = APPROVAL_PERSON_ORGANIZATION ( #137, #107, #182 ) ;
#156 = CARTESIAN_POINT ( 'NONE',  ( 6.000000000000000888, 7.347880794884120722E-16, 500.0000000000000000 ) ) ;
#157 = ADVANCED_FACE ( 'NONE', ( #201 ), #180, .F. ) ;
#158 = PERSON_AND_ORGANIZATION_ROLE ( 'design_owner' ) ;
#159 = CARTESIAN_POINT ( 'NONE',  ( 0.000000000000000000, 0.000000000000000000, 500.0000000000000000 ) ) ;
#160 = DIRECTION ( 'NONE',  ( 1.000000000000000000, 0.000000000000000000, 0.000000000000000000 ) ) ;
#161 = PRODUCT_DEFINITION_SHAPE ( 'NONE', 'NONE',  #166 ) ;
#162 = EDGE_CURVE ( 'NONE', #144, #13, #238, .T. ) ;
#163 = CC_DESIGN_PERSON_AND_ORGANIZATION_ASSIGNMENT ( #253, #59, ( #9 ) ) ;
#164 = DIRECTION ( 'NONE',  ( 1.000000000000000000, 0.000000000000000000, 0.000000000000000000 ) ) ;
#165 = ORIENTED_EDGE ( 'NONE', *, *, #76, .T. ) ;
#166 = PRODUCT_DEFINITION ( 'NEZNÁMÝ', '', #9, #200 ) ;
#167 = ORIENTED_EDGE ( 'NONE', *, *, #178, .F. ) ;
#168 = SECURITY_CLASSIFICATION ( '', '', #91 ) ;
#169 = ORIENTED_EDGE ( 'NONE', *, *, #178, .T. ) ;
#170 = PRODUCT_RELATED_PRODUCT_CATEGORY ( 'detail', '', ( #152 ) ) ;
#171 = CC_DESIGN_SECURITY_CLASSIFICATION ( #168, ( #9 ) ) ;
#172 = DIRECTION ( 'NONE',  ( 0.000000000000000000, 0.000000000000000000, 1.000000000000000000 ) ) ;
#173 = COORDINATED_UNIVERSAL_TIME_OFFSET ( 1, 0, .AHEAD. ) ;
#174 = DIRECTION ( 'NONE',  ( 0.000000000000000000, 0.000000000000000000, 1.000000000000000000 ) ) ;
#175 = ADVANCED_FACE ( 'NONE', ( #242 ), #154, .T. ) ;
#176 = CIRCLE ( 'NONE', #244, 10.00000000000000000 ) ;
#177 = FACE_OUTER_BOUND ( 'NONE', #65, .T. ) ;
#178 = EDGE_CURVE ( 'NONE', #13, #50, #34, .T. ) ;
#179 = DIRECTION ( 'NONE',  ( 1.000000000000000000, 0.000000000000000000, -0.000000000000000000 ) ) ;
#180 = PLANE ( 'NONE',  #228 ) ;
#181 = CYLINDRICAL_SURFACE ( 'NONE', #151, 10.00000000000000000 ) ;
#182 = APPROVAL_ROLE ( '' ) ;
#183 = AXIS2_PLACEMENT_3D ( 'NONE', #159, #239, #196 ) ;
#184 = ORIENTED_EDGE ( 'NONE', *, *, #97, .F. ) ;
#185 = DIRECTION ( 'NONE',  ( 0.000000000000000000, 0.000000000000000000, 1.000000000000000000 ) ) ;
#186 =( NAMED_UNIT ( * ) SI_UNIT ( $, .STERADIAN. ) SOLID_ANGLE_UNIT ( ) );
#187 = FACE_OUTER_BOUND ( 'NONE', #46, .T. ) ;
#188 = AXIS2_PLACEMENT_3D ( 'NONE', #254, #148, #73 ) ;
#189 = ORIENTED_EDGE ( 'NONE', *, *, #162, .F. ) ;
#190 = DIRECTION ( 'NONE',  ( 0.000000000000000000, 0.000000000000000000, 1.000000000000000000 ) ) ;
#191 = ORIENTED_EDGE ( 'NONE', *, *, #246, .T. ) ;
#192 = PERSON_AND_ORGANIZATION ( #77, #147 ) ;
#193 = DIRECTION ( 'NONE',  ( 0.000000000000000000, 0.000000000000000000, 1.000000000000000000 ) ) ;
#194 = APPROVAL_DATE_TIME ( #108, #149 ) ;
#195 = CC_DESIGN_PERSON_AND_ORGANIZATION_ASSIGNMENT ( #47, #23, ( #166 ) ) ;
#196 = DIRECTION ( 'NONE',  ( -1.000000000000000000, 0.000000000000000000, 0.000000000000000000 ) ) ;
#197 = MANIFOLD_SOLID_BREP ( 'Pøidat vysunutím3', #198 ) ;
#198 = CLOSED_SHELL ( 'NONE', ( #30, #129, #219, #153, #157, #175, #213 ) ) ;
#199 = LOCAL_TIME ( 11, 19, 36.00000000000000000, #54 ) ;
#200 = DESIGN_CONTEXT ( 'detailed design', #67, 'design' ) ;
#201 = FACE_OUTER_BOUND ( 'NONE', #10, .T. ) ;
#202 = CARTESIAN_POINT ( 'NONE',  ( 0.000000000000000000, 0.000000000000000000, 0.000000000000000000 ) ) ;
#203 = ORIENTED_EDGE ( 'NONE', *, *, #250, .T. ) ;
#204 = CARTESIAN_POINT ( 'NONE',  ( 0.000000000000000000, 0.000000000000000000, 500.0000000000000000 ) ) ;
#205 = EDGE_CURVE ( 'NONE', #120, #50, #140, .T. ) ;
#206 = ORIENTED_EDGE ( 'NONE', *, *, #16, .T. ) ;
#207 = ORIENTED_EDGE ( 'NONE', *, *, #250, .F. ) ;
#208 = CARTESIAN_POINT ( 'NONE',  ( 10.00000000000000000, 1.224646799147353256E-15, 7.000000000000000000 ) ) ;
#209 = AXIS2_PLACEMENT_3D ( 'NONE', #204, #98, #4 ) ;
#210 = CARTESIAN_POINT ( 'NONE',  ( 0.000000000000000000, 0.000000000000000000, 0.000000000000000000 ) ) ;
#211 = APPROVAL_DATE_TIME ( #74, #145 ) ;
#212 = CIRCLE ( 'NONE', #12, 6.000000000000000888 ) ;
#213 = ADVANCED_FACE ( 'NONE', ( #187 ), #51, .T. ) ;
#214 = DATE_AND_TIME ( #71, #199 ) ;
#215 = CARTESIAN_POINT ( 'NONE',  ( -10.00000000000000000, 0.000000000000000000, 0.000000000000000000 ) ) ;
#216 = CALENDAR_DATE ( 2023, 13, 2 ) ;
#217 = EDGE_CURVE ( 'NONE', #120, #144, #240, .T. ) ;
#218 = PERSON_AND_ORGANIZATION_ROLE ( 'classification_officer' ) ;
#219 = ADVANCED_FACE ( 'NONE', ( #225 ), #118, .T. ) ;
#220 = DIRECTION ( 'NONE',  ( -0.000000000000000000, -0.000000000000000000, -1.000000000000000000 ) ) ;
#221 = DIRECTION ( 'NONE',  ( -1.000000000000000000, 0.000000000000000000, 0.000000000000000000 ) ) ;
#222 = DIRECTION ( 'NONE',  ( 0.000000000000000000, 0.000000000000000000, 1.000000000000000000 ) ) ;
#223 = APPROVAL_STATUS ( 'not_yet_approved' ) ;
#224 = DIRECTION ( 'NONE',  ( -0.000000000000000000, -0.000000000000000000, -1.000000000000000000 ) ) ;
#225 = FACE_OUTER_BOUND ( 'NONE', #20, .T. ) ;
#226 =( LENGTH_UNIT ( ) NAMED_UNIT ( * ) SI_UNIT ( .MILLI., .METRE. ) );
#227 = EDGE_CURVE ( 'NONE', #104, #105, #68, .T. ) ;
#228 = AXIS2_PLACEMENT_3D ( 'NONE', #5, #185, #8 ) ;
#229 = ORIENTED_EDGE ( 'NONE', *, *, #1, .F. ) ;
#230 = DIRECTION ( 'NONE',  ( 0.000000000000000000, 0.000000000000000000, 1.000000000000000000 ) ) ;
#231 = PERSON_AND_ORGANIZATION ( #77, #147 ) ;
#232 = ORIENTED_EDGE ( 'NONE', *, *, #86, .T. ) ;
#233 = APPROVAL_ROLE ( '' ) ;
#234 = LOCAL_TIME ( 11, 19, 36.00000000000000000, #56 ) ;
#235 = ORIENTED_EDGE ( 'NONE', *, *, #227, .F. ) ;
#236 = DIRECTION ( 'NONE',  ( 1.000000000000000000, 0.000000000000000000, 0.000000000000000000 ) ) ;
#237 = DATE_TIME_ROLE ( 'classification_date' ) ;
#238 = LINE ( 'NONE', #131, #109 ) ;
#239 = DIRECTION ( 'NONE',  ( -0.000000000000000000, -0.000000000000000000, -1.000000000000000000 ) ) ;
#240 = CIRCLE ( 'NONE', #81, 10.00000000000000000 ) ;
#241 = CARTESIAN_POINT ( 'NONE',  ( 0.000000000000000000, 0.000000000000000000, 7.000000000000000000 ) ) ;
#242 = FACE_OUTER_BOUND ( 'NONE', #87, .T. ) ;
#243 = COORDINATED_UNIVERSAL_TIME_OFFSET ( 1, 0, .AHEAD. ) ;
#244 = AXIS2_PLACEMENT_3D ( 'NONE', #32, #174, #110 ) ;
#245 = APPROVAL_DATE_TIME ( #40, #107 ) ;
#246 = EDGE_CURVE ( 'NONE', #121, #116, #122, .T. ) ;
#247 = ORIENTED_EDGE ( 'NONE', *, *, #16, .F. ) ;
#248 = CIRCLE ( 'NONE', #84, 10.00000000000000000 ) ;
#249 = DATE_TIME_ROLE ( 'creation_date' ) ;
#250 = EDGE_CURVE ( 'NONE', #104, #121, #64, .T. ) ;
#251 = LOCAL_TIME ( 11, 19, 36.00000000000000000, #173 ) ;
#252 = DIRECTION ( 'NONE',  ( 1.000000000000000000, 0.000000000000000000, 0.000000000000000000 ) ) ;
#253 = PERSON_AND_ORGANIZATION ( #77, #147 ) ;
#254 = CARTESIAN_POINT ( 'NONE',  ( 0.000000000000000000, 0.000000000000000000, 500.0000000000000000 ) ) ;
#255 = ORIENTED_EDGE ( 'NONE', *, *, #162, .T. ) ;
ENDSEC;
END-ISO-10303-21;
