ISO-10303-21;
HEADER;
FILE_DESCRIPTION (( 'STEP AP203' ),
    '1' );
FILE_NAME ('5d3f.STEP',
    '2023-02-13T07:53:01',
    ( '' ),
    ( '' ),
    'SwSTEP 2.0',
    'SolidWorks 2019',
    '' );
FILE_SCHEMA (( 'CONFIG_CONTROL_DESIGN' ));
ENDSEC;

DATA;
#1 = PRODUCT ( '5d3f', '5d3f', '', ( #143 ) ) ;
#2 = LOCAL_TIME ( 8, 53, 1.000000000000000000, #23 ) ;
#3 = AXIS2_PLACEMENT_3D ( 'NONE', #129, #157, #7 ) ;
#4 = EDGE_LOOP ( 'NONE', ( #57, #77 ) ) ;
#5 = APPROVAL_DATE_TIME ( #63, #24 ) ;
#6 = PERSON_AND_ORGANIZATION_ROLE ( 'creator' ) ;
#7 = DIRECTION ( 'NONE',  ( 1.000000000000000000, 0.000000000000000000, 0.000000000000000000 ) ) ;
#8 = CC_DESIGN_DATE_AND_TIME_ASSIGNMENT ( #48, #175, ( #145 ) ) ;
#9 = CARTESIAN_POINT ( 'NONE',  ( 0.000000000000000000, 0.000000000000000000, 10.00000000000000000 ) ) ;
#10 = DATE_AND_TIME ( #28, #210 ) ;
#11 = AXIS2_PLACEMENT_3D ( 'NONE', #108, #136, #106 ) ;
#12 = CARTESIAN_POINT ( 'NONE',  ( 12.50000000000000000, 1.530808498934191127E-15, 10.00000000000000000 ) ) ;
#13 = PLANE ( 'NONE',  #62 ) ;
#14 = VERTEX_POINT ( 'NONE', #211 ) ;
#15 = DIRECTION ( 'NONE',  ( 1.000000000000000000, 0.000000000000000000, -0.000000000000000000 ) ) ;
#16 = VERTEX_POINT ( 'NONE', #12 ) ;
#17 = EDGE_CURVE ( 'NONE', #14, #16, #83, .T. ) ;
#18 = LINE ( 'NONE', #54, #161 ) ;
#19 = EDGE_LOOP ( 'NONE', ( #185, #149, #214, #59 ) ) ;
#20 = ORIENTED_EDGE ( 'NONE', *, *, #86, .T. ) ;
#21 = ADVANCED_FACE ( 'NONE', ( #207 ), #55, .T. ) ;
#22 = CC_DESIGN_PERSON_AND_ORGANIZATION_ASSIGNMENT ( #84, #167, ( #164 ) ) ;
#23 = COORDINATED_UNIVERSAL_TIME_OFFSET ( 1, 0, .AHEAD. ) ;
#24 = APPROVAL ( #192, 'NEURÈENÝ' ) ;
#25 = DIRECTION ( 'NONE',  ( 0.000000000000000000, 0.000000000000000000, 1.000000000000000000 ) ) ;
#26 = CARTESIAN_POINT ( 'NONE',  ( 16.00000000000000000, 1.959434878635765131E-15, 10.00000000000000000 ) ) ;
#27 = FACE_BOUND ( 'NONE', #248, .T. ) ;
#28 = CALENDAR_DATE ( 2023, 13, 2 ) ;
#29 = VECTOR ( 'NONE', #87, 1000.000000000000000 ) ;
#30 = LOCAL_TIME ( 8, 53, 1.000000000000000000, #124 ) ;
#31 = DIRECTION ( 'NONE',  ( 0.000000000000000000, 0.000000000000000000, 1.000000000000000000 ) ) ;
#32 = CARTESIAN_POINT ( 'NONE',  ( 16.00000000000000000, 1.959434878635765131E-15, 10.00000000000000000 ) ) ;
#33 = ORIENTED_EDGE ( 'NONE', *, *, #122, .T. ) ;
#34 = DIRECTION ( 'NONE',  ( -0.000000000000000000, -0.000000000000000000, -1.000000000000000000 ) ) ;
#35 = CIRCLE ( 'NONE', #125, 12.50000000000000000 ) ;
#36 = AXIS2_PLACEMENT_3D ( 'NONE', #132, #53, #15 ) ;
#37 = CARTESIAN_POINT ( 'NONE',  ( 0.000000000000000000, 0.000000000000000000, 0.000000000000000000 ) ) ;
#38 = PERSON_AND_ORGANIZATION ( #251, #170 ) ;
#39 = AXIS2_PLACEMENT_3D ( 'NONE', #254, #155, #138 ) ;
#40 = APPROVAL_ROLE ( '' ) ;
#41 = PERSON_AND_ORGANIZATION ( #251, #170 ) ;
#42 = CC_DESIGN_APPROVAL ( #52, ( #239 ) ) ;
#43 = CIRCLE ( 'NONE', #222, 12.50000000000000000 ) ;
#44 = DIRECTION ( 'NONE',  ( -0.000000000000000000, -0.000000000000000000, -1.000000000000000000 ) ) ;
#45 = DATE_TIME_ROLE ( 'creation_date' ) ;
#46 = DESIGN_CONTEXT ( 'detailed design', #130, 'design' ) ;
#47 = FACE_OUTER_BOUND ( 'NONE', #197, .T. ) ;
#48 = DATE_AND_TIME ( #148, #30 ) ;
#49 = ORIENTED_EDGE ( 'NONE', *, *, #17, .F. ) ;
#50 = CARTESIAN_POINT ( 'NONE',  ( 0.000000000000000000, 0.000000000000000000, 0.000000000000000000 ) ) ;
#51 = LINE ( 'NONE', #32, #105 ) ;
#52 = APPROVAL ( #119, 'NEURÈENÝ' ) ;
#53 = DIRECTION ( 'NONE',  ( 0.000000000000000000, 0.000000000000000000, 1.000000000000000000 ) ) ;
#54 = CARTESIAN_POINT ( 'NONE',  ( 12.50000000000000000, 1.530808498934191127E-15, 99.99999999999998579 ) ) ;
#55 = CYLINDRICAL_SURFACE ( 'NONE', #234, 16.00000000000000000 ) ;
#56 = AXIS2_PLACEMENT_3D ( 'NONE', #107, #213, #112 ) ;
#57 = ORIENTED_EDGE ( 'NONE', *, *, #86, .F. ) ;
#58 = ADVANCED_FACE ( 'NONE', ( #27, #249 ), #102, .T. ) ;
#59 = ORIENTED_EDGE ( 'NONE', *, *, #194, .F. ) ;
#60 = CARTESIAN_POINT ( 'NONE',  ( 0.000000000000000000, 0.000000000000000000, 10.00000000000000000 ) ) ;
#61 = CC_DESIGN_APPROVAL ( #140, ( #145 ) ) ;
#62 = AXIS2_PLACEMENT_3D ( 'NONE', #50, #209, #174 ) ;
#63 = DATE_AND_TIME ( #242, #235 ) ;
#64 = PERSON_AND_ORGANIZATION_ROLE ( 'classification_officer' ) ;
#65 = APPROVAL_PERSON_ORGANIZATION ( #166, #24, #40 ) ;
#66 = EDGE_CURVE ( 'NONE', #252, #14, #250, .T. ) ;
#67 = CARTESIAN_POINT ( 'NONE',  ( 0.000000000000000000, 0.000000000000000000, 10.00000000000000000 ) ) ;
#68 = CC_DESIGN_APPROVAL ( #24, ( #164 ) ) ;
#69 = CYLINDRICAL_SURFACE ( 'NONE', #97, 12.50000000000000000 ) ;
#70 = CARTESIAN_POINT ( 'NONE',  ( -16.00000000000000000, 0.000000000000000000, 10.00000000000000000 ) ) ;
#71 = DIRECTION ( 'NONE',  ( 1.000000000000000000, 0.000000000000000000, 0.000000000000000000 ) ) ;
#72 = CARTESIAN_POINT ( 'NONE',  ( -16.00000000000000000, 0.000000000000000000, 10.00000000000000000 ) ) ;
#73 = CC_DESIGN_PERSON_AND_ORGANIZATION_ASSIGNMENT ( #38, #100, ( #1 ) ) ;
#74 = ORIENTED_EDGE ( 'NONE', *, *, #168, .F. ) ;
#75 = VERTEX_POINT ( 'NONE', #191 ) ;
#76 = DIRECTION ( 'NONE',  ( -1.000000000000000000, 0.000000000000000000, 0.000000000000000000 ) ) ;
#77 = ORIENTED_EDGE ( 'NONE', *, *, #171, .F. ) ;
#78 = EDGE_CURVE ( 'NONE', #16, #14, #182, .T. ) ;
#79 = DIRECTION ( 'NONE',  ( 1.000000000000000000, 0.000000000000000000, 0.000000000000000000 ) ) ;
#80 = CIRCLE ( 'NONE', #3, 16.00000000000000000 ) ;
#81 = COORDINATED_UNIVERSAL_TIME_OFFSET ( 1, 0, .AHEAD. ) ;
#82 = SECURITY_CLASSIFICATION_LEVEL ( 'unclassified' ) ;
#83 = CIRCLE ( 'NONE', #114, 12.50000000000000000 ) ;
#84 = PERSON_AND_ORGANIZATION ( #251, #170 ) ;
#85 = DIRECTION ( 'NONE',  ( -1.000000000000000000, 0.000000000000000000, 0.000000000000000000 ) ) ;
#86 = EDGE_CURVE ( 'NONE', #200, #75, #80, .T. ) ;
#87 = DIRECTION ( 'NONE',  ( -0.000000000000000000, -0.000000000000000000, -1.000000000000000000 ) ) ;
#88 = APPLICATION_CONTEXT ( 'configuration controlled 3d designs of mechanical parts and assemblies' ) ;
#89 = ADVANCED_FACE ( 'NONE', ( #230 ), #69, .T. ) ;
#90 = FACE_OUTER_BOUND ( 'NONE', #4, .T. ) ;
#91 = ORIENTED_EDGE ( 'NONE', *, *, #66, .F. ) ;
#92 = CARTESIAN_POINT ( 'NONE',  ( 0.000000000000000000, 0.000000000000000000, 0.000000000000000000 ) ) ;
#93 = CARTESIAN_POINT ( 'NONE',  ( 12.50000000000000000, 1.530808498934191127E-15, 99.99999999999998579 ) ) ;
#94 = ORIENTED_EDGE ( 'NONE', *, *, #224, .F. ) ;
#95 = AXIS2_PLACEMENT_3D ( 'NONE', #9, #25, #172 ) ;
#96 = ADVANCED_FACE ( 'NONE', ( #90 ), #13, .F. ) ;
#97 = AXIS2_PLACEMENT_3D ( 'NONE', #151, #44, #85 ) ;
#98 = PERSON_AND_ORGANIZATION ( #251, #170 ) ;
#99 = EDGE_CURVE ( 'NONE', #128, #177, #206, .T. ) ;
#100 = PERSON_AND_ORGANIZATION_ROLE ( 'design_owner' ) ;
#101 = MANIFOLD_SOLID_BREP ( 'Pøidat vysunutím3', #117 ) ;
#102 = PLANE ( 'NONE',  #11 ) ;
#103 = APPROVAL_ROLE ( '' ) ;
#104 = CARTESIAN_POINT ( 'NONE',  ( 0.000000000000000000, 0.000000000000000000, 10.00000000000000000 ) ) ;
#105 = VECTOR ( 'NONE', #34, 1000.000000000000000 ) ;
#106 = DIRECTION ( 'NONE',  ( 1.000000000000000000, 0.000000000000000000, -0.000000000000000000 ) ) ;
#107 = CARTESIAN_POINT ( 'NONE',  ( 0.000000000000000000, 0.000000000000000000, 10.00000000000000000 ) ) ;
#108 = CARTESIAN_POINT ( 'NONE',  ( 0.000000000000000000, 0.000000000000000000, 10.00000000000000000 ) ) ;
#109 = CARTESIAN_POINT ( 'NONE',  ( 0.000000000000000000, 0.000000000000000000, 10.00000000000000000 ) ) ;
#110 = EDGE_LOOP ( 'NONE', ( #142, #241, #113, #91 ) ) ;
#111 = LINE ( 'NONE', #70, #245 ) ;
#112 = DIRECTION ( 'NONE',  ( 1.000000000000000000, 0.000000000000000000, 0.000000000000000000 ) ) ;
#113 = ORIENTED_EDGE ( 'NONE', *, *, #78, .T. ) ;
#114 = AXIS2_PLACEMENT_3D ( 'NONE', #109, #255, #156 ) ;
#115 = DIRECTION ( 'NONE',  ( -0.000000000000000000, -0.000000000000000000, -1.000000000000000000 ) ) ;
#116 = DIRECTION ( 'NONE',  ( 0.000000000000000000, 0.000000000000000000, 1.000000000000000000 ) ) ;
#117 = CLOSED_SHELL ( 'NONE', ( #212, #160, #21, #58, #96, #89, #150 ) ) ;
#118 = AXIS2_PLACEMENT_3D ( 'NONE', #60, #115, #76 ) ;
#119 = APPROVAL_STATUS ( 'not_yet_approved' ) ;
#120 = CC_DESIGN_PERSON_AND_ORGANIZATION_ASSIGNMENT ( #123, #6, ( #164 ) ) ;
#121 = CALENDAR_DATE ( 2023, 13, 2 ) ;
#122 = EDGE_CURVE ( 'NONE', #252, #199, #43, .T. ) ;
#123 = PERSON_AND_ORGANIZATION ( #251, #170 ) ;
#124 = COORDINATED_UNIVERSAL_TIME_OFFSET ( 1, 0, .AHEAD. ) ;
#125 = AXIS2_PLACEMENT_3D ( 'NONE', #232, #134, #163 ) ;
#126 = ADVANCED_BREP_SHAPE_REPRESENTATION ( '5d3f', ( #101, #178 ), #183 ) ;
#127 = DIRECTION ( 'NONE',  ( 1.000000000000000000, 0.000000000000000000, 0.000000000000000000 ) ) ;
#128 = VERTEX_POINT ( 'NONE', #26 ) ;
#129 = CARTESIAN_POINT ( 'NONE',  ( 0.000000000000000000, 0.000000000000000000, 0.000000000000000000 ) ) ;
#130 = APPLICATION_CONTEXT ( 'configuration controlled 3d designs of mechanical parts and assemblies' ) ;
#131 = APPROVAL_PERSON_ORGANIZATION ( #98, #52, #220 ) ;
#132 = CARTESIAN_POINT ( 'NONE',  ( 0.000000000000000000, 0.000000000000000000, 99.99999999999998579 ) ) ;
#133 = EDGE_LOOP ( 'NONE', ( #74, #233, #237, #228 ) ) ;
#134 = DIRECTION ( 'NONE',  ( 0.000000000000000000, 0.000000000000000000, 1.000000000000000000 ) ) ;
#135 = ORIENTED_EDGE ( 'NONE', *, *, #189, .F. ) ;
#136 = DIRECTION ( 'NONE',  ( 0.000000000000000000, 0.000000000000000000, 1.000000000000000000 ) ) ;
#137 = ORIENTED_EDGE ( 'NONE', *, *, #224, .T. ) ;
#138 = DIRECTION ( 'NONE',  ( -1.000000000000000000, 0.000000000000000000, 0.000000000000000000 ) ) ;
#139 = AXIS2_PLACEMENT_3D ( 'NONE', #92, #158, #79 ) ;
#140 = APPROVAL ( #225, 'NEURÈENÝ' ) ;
#141 = ORIENTED_EDGE ( 'NONE', *, *, #78, .F. ) ;
#142 = ORIENTED_EDGE ( 'NONE', *, *, #187, .F. ) ;
#143 = MECHANICAL_CONTEXT ( 'NONE', #88, 'mechanical' ) ;
#144 = PERSON_AND_ORGANIZATION_ROLE ( 'creator' ) ;
#145 = SECURITY_CLASSIFICATION ( '', '', #82 ) ;
#146 = LOCAL_TIME ( 8, 53, 1.000000000000000000, #221 ) ;
#147 = DIRECTION ( 'NONE',  ( -0.000000000000000000, -0.000000000000000000, -1.000000000000000000 ) ) ;
#148 = CALENDAR_DATE ( 2023, 13, 2 ) ;
#149 = ORIENTED_EDGE ( 'NONE', *, *, #189, .T. ) ;
#150 = ADVANCED_FACE ( 'NONE', ( #47 ), #169, .T. ) ;
#151 = CARTESIAN_POINT ( 'NONE',  ( 0.000000000000000000, 0.000000000000000000, 99.99999999999998579 ) ) ;
#152 = SHAPE_DEFINITION_REPRESENTATION ( #201, #126 ) ;
#153 = CYLINDRICAL_SURFACE ( 'NONE', #39, 12.50000000000000000 ) ;
#154 = DIRECTION ( 'NONE',  ( 0.000000000000000000, 0.000000000000000000, 1.000000000000000000 ) ) ;
#155 = DIRECTION ( 'NONE',  ( -0.000000000000000000, -0.000000000000000000, -1.000000000000000000 ) ) ;
#156 = DIRECTION ( 'NONE',  ( 1.000000000000000000, 0.000000000000000000, 0.000000000000000000 ) ) ;
#157 = DIRECTION ( 'NONE',  ( 0.000000000000000000, 0.000000000000000000, 1.000000000000000000 ) ) ;
#158 = DIRECTION ( 'NONE',  ( 0.000000000000000000, 0.000000000000000000, 1.000000000000000000 ) ) ;
#159 = DIRECTION ( 'NONE',  ( -0.000000000000000000, -0.000000000000000000, -1.000000000000000000 ) ) ;
#160 = ADVANCED_FACE ( 'NONE', ( #162 ), #184, .T. ) ;
#161 = VECTOR ( 'NONE', #159, 1000.000000000000000 ) ;
#162 = FACE_OUTER_BOUND ( 'NONE', #19, .T. ) ;
#163 = DIRECTION ( 'NONE',  ( 1.000000000000000000, 0.000000000000000000, 0.000000000000000000 ) ) ;
#164 = PRODUCT_DEFINITION_FORMATION_WITH_SPECIFIED_SOURCE ( 'LIBOVOLNÝ', '', #1, .NOT_KNOWN. ) ;
#165 = AXIS2_PLACEMENT_3D ( 'NONE', #67, #31, #71 ) ;
#166 = PERSON_AND_ORGANIZATION ( #251, #170 ) ;
#167 = PERSON_AND_ORGANIZATION_ROLE ( 'design_supplier' ) ;
#168 = EDGE_CURVE ( 'NONE', #199, #16, #18, .T. ) ;
#169 = PLANE ( 'NONE',  #36 ) ;
#170 = ORGANIZATION ( 'NEURÈENÝ', 'NEURÈENÝ', '' ) ;
#171 = EDGE_CURVE ( 'NONE', #75, #200, #202, .T. ) ;
#172 = DIRECTION ( 'NONE',  ( 1.000000000000000000, 0.000000000000000000, 0.000000000000000000 ) ) ;
#173 = COORDINATED_UNIVERSAL_TIME_OFFSET ( 1, 0, .AHEAD. ) ;
#174 = DIRECTION ( 'NONE',  ( 1.000000000000000000, 0.000000000000000000, -0.000000000000000000 ) ) ;
#175 = DATE_TIME_ROLE ( 'classification_date' ) ;
#176 = FACE_OUTER_BOUND ( 'NONE', #110, .T. ) ;
#177 = VERTEX_POINT ( 'NONE', #72 ) ;
#178 = AXIS2_PLACEMENT_3D ( 'NONE', #37, #116, #203 ) ;
#179 = ORIENTED_EDGE ( 'NONE', *, *, #99, .T. ) ;
#180 = CARTESIAN_POINT ( 'NONE',  ( -16.00000000000000000, 0.000000000000000000, 0.000000000000000000 ) ) ;
#181 = EDGE_LOOP ( 'NONE', ( #135, #94, #253, #20 ) ) ;
#182 = CIRCLE ( 'NONE', #95, 12.50000000000000000 ) ;
#183 =( GEOMETRIC_REPRESENTATION_CONTEXT ( 3 ) GLOBAL_UNCERTAINTY_ASSIGNED_CONTEXT ( ( #247 ) ) GLOBAL_UNIT_ASSIGNED_CONTEXT ( ( #238, #229, #216 ) ) REPRESENTATION_CONTEXT ( 'NONE', 'WORKASPACE' ) );
#184 = CYLINDRICAL_SURFACE ( 'NONE', #118, 16.00000000000000000 ) ;
#185 = ORIENTED_EDGE ( 'NONE', *, *, #99, .F. ) ;
#186 = CC_DESIGN_PERSON_AND_ORGANIZATION_ASSIGNMENT ( #41, #64, ( #145 ) ) ;
#187 = EDGE_CURVE ( 'NONE', #199, #252, #35, .T. ) ;
#188 = DATE_AND_TIME ( #244, #2 ) ;
#189 = EDGE_CURVE ( 'NONE', #128, #75, #51, .T. ) ;
#190 = APPROVAL_DATE_TIME ( #205, #52 ) ;
#191 = CARTESIAN_POINT ( 'NONE',  ( 16.00000000000000000, 1.959434878635765131E-15, 0.000000000000000000 ) ) ;
#192 = APPROVAL_STATUS ( 'not_yet_approved' ) ;
#193 = CARTESIAN_POINT ( 'NONE',  ( -12.50000000000000000, 0.000000000000000000, 99.99999999999998579 ) ) ;
#194 = EDGE_CURVE ( 'NONE', #177, #200, #111, .T. ) ;
#195 = CARTESIAN_POINT ( 'NONE',  ( 0.000000000000000000, 0.000000000000000000, 99.99999999999998579 ) ) ;
#196 = CARTESIAN_POINT ( 'NONE',  ( -12.50000000000000000, 0.000000000000000000, 99.99999999999998579 ) ) ;
#197 = EDGE_LOOP ( 'NONE', ( #33, #231 ) ) ;
#198 = DIRECTION ( 'NONE',  ( -0.000000000000000000, -0.000000000000000000, -1.000000000000000000 ) ) ;
#199 = VERTEX_POINT ( 'NONE', #93 ) ;
#200 = VERTEX_POINT ( 'NONE', #180 ) ;
#201 = PRODUCT_DEFINITION_SHAPE ( 'NONE', 'NONE',  #239 ) ;
#202 = CIRCLE ( 'NONE', #139, 16.00000000000000000 ) ;
#203 = DIRECTION ( 'NONE',  ( 1.000000000000000000, 0.000000000000000000, 0.000000000000000000 ) ) ;
#204 = CC_DESIGN_SECURITY_CLASSIFICATION ( #145, ( #164 ) ) ;
#205 = DATE_AND_TIME ( #121, #146 ) ;
#206 = CIRCLE ( 'NONE', #165, 16.00000000000000000 ) ;
#207 = FACE_OUTER_BOUND ( 'NONE', #181, .T. ) ;
#208 = DIRECTION ( 'NONE',  ( -1.000000000000000000, 0.000000000000000000, 0.000000000000000000 ) ) ;
#209 = DIRECTION ( 'NONE',  ( 0.000000000000000000, 0.000000000000000000, 1.000000000000000000 ) ) ;
#210 = LOCAL_TIME ( 8, 53, 1.000000000000000000, #173 ) ;
#211 = CARTESIAN_POINT ( 'NONE',  ( -12.50000000000000000, 0.000000000000000000, 10.00000000000000000 ) ) ;
#212 = ADVANCED_FACE ( 'NONE', ( #176 ), #153, .T. ) ;
#213 = DIRECTION ( 'NONE',  ( 0.000000000000000000, 0.000000000000000000, 1.000000000000000000 ) ) ;
#214 = ORIENTED_EDGE ( 'NONE', *, *, #171, .T. ) ;
#215 = EDGE_LOOP ( 'NONE', ( #137, #179 ) ) ;
#216 =( NAMED_UNIT ( * ) SI_UNIT ( $, .STERADIAN. ) SOLID_ANGLE_UNIT ( ) );
#217 = APPLICATION_PROTOCOL_DEFINITION ( 'international standard', 'config_control_design', 1994, #88 ) ;
#218 = CIRCLE ( 'NONE', #56, 16.00000000000000000 ) ;
#219 = PRODUCT_RELATED_PRODUCT_CATEGORY ( 'detail', '', ( #1 ) ) ;
#220 = APPROVAL_ROLE ( '' ) ;
#221 = COORDINATED_UNIVERSAL_TIME_OFFSET ( 1, 0, .AHEAD. ) ;
#222 = AXIS2_PLACEMENT_3D ( 'NONE', #195, #154, #127 ) ;
#223 = PERSON_AND_ORGANIZATION ( #251, #170 ) ;
#224 = EDGE_CURVE ( 'NONE', #177, #128, #218, .T. ) ;
#225 = APPROVAL_STATUS ( 'not_yet_approved' ) ;
#226 = PERSON_AND_ORGANIZATION ( #251, #170 ) ;
#227 = CC_DESIGN_PERSON_AND_ORGANIZATION_ASSIGNMENT ( #223, #144, ( #239 ) ) ;
#228 = ORIENTED_EDGE ( 'NONE', *, *, #17, .T. ) ;
#229 =( NAMED_UNIT ( * ) PLANE_ANGLE_UNIT ( ) SI_UNIT ( $, .RADIAN. ) );
#230 = FACE_OUTER_BOUND ( 'NONE', #133, .T. ) ;
#231 = ORIENTED_EDGE ( 'NONE', *, *, #187, .T. ) ;
#232 = CARTESIAN_POINT ( 'NONE',  ( 0.000000000000000000, 0.000000000000000000, 99.99999999999998579 ) ) ;
#233 = ORIENTED_EDGE ( 'NONE', *, *, #122, .F. ) ;
#234 = AXIS2_PLACEMENT_3D ( 'NONE', #104, #147, #208 ) ;
#235 = LOCAL_TIME ( 8, 53, 1.000000000000000000, #81 ) ;
#236 = CC_DESIGN_DATE_AND_TIME_ASSIGNMENT ( #188, #45, ( #239 ) ) ;
#237 = ORIENTED_EDGE ( 'NONE', *, *, #66, .T. ) ;
#238 =( LENGTH_UNIT ( ) NAMED_UNIT ( * ) SI_UNIT ( .MILLI., .METRE. ) );
#239 = PRODUCT_DEFINITION ( 'NEZNÁMÝ', '', #164, #46 ) ;
#240 = APPROVAL_PERSON_ORGANIZATION ( #226, #140, #103 ) ;
#241 = ORIENTED_EDGE ( 'NONE', *, *, #168, .T. ) ;
#242 = CALENDAR_DATE ( 2023, 13, 2 ) ;
#243 = APPLICATION_PROTOCOL_DEFINITION ( 'international standard', 'config_control_design', 1994, #130 ) ;
#244 = CALENDAR_DATE ( 2023, 13, 2 ) ;
#245 = VECTOR ( 'NONE', #198, 1000.000000000000000 ) ;
#246 = APPROVAL_DATE_TIME ( #10, #140 ) ;
#247 = UNCERTAINTY_MEASURE_WITH_UNIT (LENGTH_MEASURE( 1.000000000000000082E-05 ), #238, 'distance_accuracy_value', 'NONE');
#248 = EDGE_LOOP ( 'NONE', ( #49, #141 ) ) ;
#249 = FACE_OUTER_BOUND ( 'NONE', #215, .T. ) ;
#250 = LINE ( 'NONE', #193, #29 ) ;
#251 = PERSON ( 'NEURÈENÝ', 'NEURÈENÝ', 'NEURÈENÝ', ('NEURÈENÝ'), ('NEURÈENÝ'), ('NEURÈENÝ') ) ;
#252 = VERTEX_POINT ( 'NONE', #196 ) ;
#253 = ORIENTED_EDGE ( 'NONE', *, *, #194, .T. ) ;
#254 = CARTESIAN_POINT ( 'NONE',  ( 0.000000000000000000, 0.000000000000000000, 99.99999999999998579 ) ) ;
#255 = DIRECTION ( 'NONE',  ( 0.000000000000000000, 0.000000000000000000, 1.000000000000000000 ) ) ;
ENDSEC;
END-ISO-10303-21;
