ISO-10303-21;
HEADER;
FILE_DESCRIPTION (( 'STEP AP203' ),
    '1' );
FILE_NAME ('4037.STEP',
    '2023-02-13T15:06:38',
    ( '' ),
    ( '' ),
    'SwSTEP 2.0',
    'SolidWorks 2019',
    '' );
FILE_SCHEMA (( 'CONFIG_CONTROL_DESIGN' ));
ENDSEC;

DATA;
#1 = MANIFOLD_SOLID_BREP ( 'Pøidat vysunutím3', #126 ) ;
#2 = EDGE_LOOP ( 'NONE', ( #191, #125 ) ) ;
#3 = COORDINATED_UNIVERSAL_TIME_OFFSET ( 1, 0, .AHEAD. ) ;
#4 = ORGANIZATION ( 'NEURÈENÝ', 'NEURÈENÝ', '' ) ;
#5 = EDGE_CURVE ( 'NONE', #76, #46, #37, .T. ) ;
#6 = AXIS2_PLACEMENT_3D ( 'NONE', #51, #119, #99 ) ;
#7 = CARTESIAN_POINT ( 'NONE',  ( 0.000000000000000000, 0.000000000000000000, 3.000000000000000000 ) ) ;
#8 = ADVANCED_FACE ( 'NONE', ( #176 ), #188, .T. ) ;
#9 = CARTESIAN_POINT ( 'NONE',  ( 0.000000000000000000, 0.000000000000000000, 100.0000000000000000 ) ) ;
#10 = ORIENTED_EDGE ( 'NONE', *, *, #255, .F. ) ;
#11 = CARTESIAN_POINT ( 'NONE',  ( 0.000000000000000000, 0.000000000000000000, 100.0000000000000000 ) ) ;
#12 = DIRECTION ( 'NONE',  ( 1.000000000000000000, 0.000000000000000000, 0.000000000000000000 ) ) ;
#13 = CARTESIAN_POINT ( 'NONE',  ( -2.100000000000000089, 0.000000000000000000, 100.0000000000000000 ) ) ;
#14 = DIRECTION ( 'NONE',  ( 0.000000000000000000, 0.000000000000000000, 1.000000000000000000 ) ) ;
#15 = DIRECTION ( 'NONE',  ( -0.000000000000000000, -0.000000000000000000, -1.000000000000000000 ) ) ;
#16 =( NAMED_UNIT ( * ) SI_UNIT ( $, .STERADIAN. ) SOLID_ANGLE_UNIT ( ) );
#17 = ORIENTED_EDGE ( 'NONE', *, *, #103, .T. ) ;
#18 = CARTESIAN_POINT ( 'NONE',  ( 0.000000000000000000, 0.000000000000000000, 3.000000000000000000 ) ) ;
#19 = DIRECTION ( 'NONE',  ( -1.000000000000000000, 0.000000000000000000, 0.000000000000000000 ) ) ;
#20 = DATE_TIME_ROLE ( 'creation_date' ) ;
#21 = CARTESIAN_POINT ( 'NONE',  ( -4.000000000000000000, 0.000000000000000000, 0.000000000000000000 ) ) ;
#22 = PRODUCT_RELATED_PRODUCT_CATEGORY ( 'detail', '', ( #237 ) ) ;
#23 = DIRECTION ( 'NONE',  ( 0.000000000000000000, 0.000000000000000000, 1.000000000000000000 ) ) ;
#24 = DIRECTION ( 'NONE',  ( -1.000000000000000000, 0.000000000000000000, 0.000000000000000000 ) ) ;
#25 = PERSON ( 'NEURÈENÝ', 'NEURÈENÝ', 'NEURÈENÝ', ('NEURÈENÝ'), ('NEURÈENÝ'), ('NEURÈENÝ') ) ;
#26 = ORIENTED_EDGE ( 'NONE', *, *, #200, .T. ) ;
#27 = LOCAL_TIME ( 16, 6, 38.00000000000000000, #132 ) ;
#28 = APPROVAL_ROLE ( '' ) ;
#29 = CARTESIAN_POINT ( 'NONE',  ( 0.000000000000000000, 0.000000000000000000, 3.000000000000000000 ) ) ;
#30 = EDGE_CURVE ( 'NONE', #214, #218, #167, .T. ) ;
#31 = EDGE_LOOP ( 'NONE', ( #109, #151 ) ) ;
#32 = AXIS2_PLACEMENT_3D ( 'NONE', #80, #120, #65 ) ;
#33 = DIRECTION ( 'NONE',  ( 0.000000000000000000, 0.000000000000000000, 1.000000000000000000 ) ) ;
#34 = DATE_TIME_ROLE ( 'classification_date' ) ;
#35 = VECTOR ( 'NONE', #102, 1000.000000000000000 ) ;
#36 = LINE ( 'NONE', #207, #115 ) ;
#37 = LINE ( 'NONE', #210, #138 ) ;
#38 = ORIENTED_EDGE ( 'NONE', *, *, #234, .T. ) ;
#39 = ADVANCED_BREP_SHAPE_REPRESENTATION ( '4037', ( #1, #32 ), #54 ) ;
#40 = CARTESIAN_POINT ( 'NONE',  ( 4.000000000000000000, 4.898587196589412829E-16, 3.000000000000000000 ) ) ;
#41 = APPROVAL_DATE_TIME ( #219, #129 ) ;
#42 = AXIS2_PLACEMENT_3D ( 'NONE', #9, #170, #72 ) ;
#43 = DIRECTION ( 'NONE',  ( -0.000000000000000000, -0.000000000000000000, -1.000000000000000000 ) ) ;
#44 = VERTEX_POINT ( 'NONE', #222 ) ;
#45 = AXIS2_PLACEMENT_3D ( 'NONE', #232, #43, #24 ) ;
#46 = VERTEX_POINT ( 'NONE', #21 ) ;
#47 = CARTESIAN_POINT ( 'NONE',  ( -2.100000000000000089, 0.000000000000000000, 100.0000000000000000 ) ) ;
#48 = AXIS2_PLACEMENT_3D ( 'NONE', #18, #96, #157 ) ;
#49 = AXIS2_PLACEMENT_3D ( 'NONE', #29, #68, #211 ) ;
#50 = CARTESIAN_POINT ( 'NONE',  ( 0.000000000000000000, 0.000000000000000000, 0.000000000000000000 ) ) ;
#51 = CARTESIAN_POINT ( 'NONE',  ( 0.000000000000000000, 0.000000000000000000, 100.0000000000000000 ) ) ;
#52 = ADVANCED_FACE ( 'NONE', ( #101 ), #179, .T. ) ;
#53 = COORDINATED_UNIVERSAL_TIME_OFFSET ( 1, 0, .AHEAD. ) ;
#54 =( GEOMETRIC_REPRESENTATION_CONTEXT ( 3 ) GLOBAL_UNCERTAINTY_ASSIGNED_CONTEXT ( ( #185 ) ) GLOBAL_UNIT_ASSIGNED_CONTEXT ( ( #223, #93, #16 ) ) REPRESENTATION_CONTEXT ( 'NONE', 'WORKASPACE' ) );
#55 = ORIENTED_EDGE ( 'NONE', *, *, #128, .T. ) ;
#56 = CIRCLE ( 'NONE', #178, 4.000000000000000000 ) ;
#57 = DIRECTION ( 'NONE',  ( 1.000000000000000000, 0.000000000000000000, 0.000000000000000000 ) ) ;
#58 = CALENDAR_DATE ( 2023, 13, 2 ) ;
#59 = CALENDAR_DATE ( 2023, 13, 2 ) ;
#60 = DIRECTION ( 'NONE',  ( 0.000000000000000000, 0.000000000000000000, 1.000000000000000000 ) ) ;
#61 = CC_DESIGN_SECURITY_CLASSIFICATION ( #204, ( #147 ) ) ;
#62 = PERSON_AND_ORGANIZATION_ROLE ( 'design_owner' ) ;
#63 = CARTESIAN_POINT ( 'NONE',  ( 0.000000000000000000, 0.000000000000000000, 100.0000000000000000 ) ) ;
#64 = ORIENTED_EDGE ( 'NONE', *, *, #103, .F. ) ;
#65 = DIRECTION ( 'NONE',  ( 1.000000000000000000, 0.000000000000000000, 0.000000000000000000 ) ) ;
#66 = PLANE ( 'NONE',  #49 ) ;
#67 = AXIS2_PLACEMENT_3D ( 'NONE', #254, #23, #82 ) ;
#68 = DIRECTION ( 'NONE',  ( 0.000000000000000000, 0.000000000000000000, 1.000000000000000000 ) ) ;
#69 = APPROVAL ( #212, 'NEURÈENÝ' ) ;
#70 = AXIS2_PLACEMENT_3D ( 'NONE', #134, #60, #251 ) ;
#71 = APPROVAL_PERSON_ORGANIZATION ( #154, #69, #148 ) ;
#72 = DIRECTION ( 'NONE',  ( 1.000000000000000000, 0.000000000000000000, -0.000000000000000000 ) ) ;
#73 = DIRECTION ( 'NONE',  ( 0.000000000000000000, 0.000000000000000000, 1.000000000000000000 ) ) ;
#74 = PRODUCT_DEFINITION ( 'NEZNÁMÝ', '', #147, #86 ) ;
#75 = APPROVAL_DATE_TIME ( #190, #69 ) ;
#76 = VERTEX_POINT ( 'NONE', #198 ) ;
#77 = EDGE_CURVE ( 'NONE', #76, #144, #252, .T. ) ;
#78 = MECHANICAL_CONTEXT ( 'NONE', #155, 'mechanical' ) ;
#79 = FACE_OUTER_BOUND ( 'NONE', #186, .T. ) ;
#80 = CARTESIAN_POINT ( 'NONE',  ( 0.000000000000000000, 0.000000000000000000, 0.000000000000000000 ) ) ;
#81 = CARTESIAN_POINT ( 'NONE',  ( 4.000000000000000000, 4.898587196589412829E-16, 3.000000000000000000 ) ) ;
#82 = DIRECTION ( 'NONE',  ( 1.000000000000000000, 0.000000000000000000, 0.000000000000000000 ) ) ;
#83 = ORIENTED_EDGE ( 'NONE', *, *, #5, .T. ) ;
#84 = DIRECTION ( 'NONE',  ( 0.000000000000000000, 0.000000000000000000, 1.000000000000000000 ) ) ;
#85 = CC_DESIGN_PERSON_AND_ORGANIZATION_ASSIGNMENT ( #225, #88, ( #147 ) ) ;
#86 = DESIGN_CONTEXT ( 'detailed design', #197, 'design' ) ;
#87 = PRODUCT_DEFINITION_SHAPE ( 'NONE', 'NONE',  #74 ) ;
#88 = PERSON_AND_ORGANIZATION_ROLE ( 'creator' ) ;
#89 = AXIS2_PLACEMENT_3D ( 'NONE', #63, #156, #159 ) ;
#90 = PLANE ( 'NONE',  #112 ) ;
#91 = ORIENTED_EDGE ( 'NONE', *, *, #255, .T. ) ;
#92 = DIRECTION ( 'NONE',  ( -0.000000000000000000, -0.000000000000000000, -1.000000000000000000 ) ) ;
#93 =( NAMED_UNIT ( * ) PLANE_ANGLE_UNIT ( ) SI_UNIT ( $, .RADIAN. ) );
#94 = CC_DESIGN_PERSON_AND_ORGANIZATION_ASSIGNMENT ( #194, #98, ( #74 ) ) ;
#95 = ORIENTED_EDGE ( 'NONE', *, *, #30, .T. ) ;
#96 = DIRECTION ( 'NONE',  ( 0.000000000000000000, 0.000000000000000000, 1.000000000000000000 ) ) ;
#97 = AXIS2_PLACEMENT_3D ( 'NONE', #192, #73, #243 ) ;
#98 = PERSON_AND_ORGANIZATION_ROLE ( 'creator' ) ;
#99 = DIRECTION ( 'NONE',  ( 1.000000000000000000, 0.000000000000000000, 0.000000000000000000 ) ) ;
#100 = CYLINDRICAL_SURFACE ( 'NONE', #89, 2.100000000000000089 ) ;
#101 = FACE_OUTER_BOUND ( 'NONE', #247, .T. ) ;
#102 = DIRECTION ( 'NONE',  ( -0.000000000000000000, -0.000000000000000000, -1.000000000000000000 ) ) ;
#103 = EDGE_CURVE ( 'NONE', #249, #46, #143, .T. ) ;
#104 = VECTOR ( 'NONE', #172, 1000.000000000000000 ) ;
#105 = CC_DESIGN_PERSON_AND_ORGANIZATION_ASSIGNMENT ( #246, #114, ( #204 ) ) ;
#106 = ORIENTED_EDGE ( 'NONE', *, *, #77, .F. ) ;
#107 = DIRECTION ( 'NONE',  ( 1.000000000000000000, 0.000000000000000000, 0.000000000000000000 ) ) ;
#108 = APPROVAL_PERSON_ORGANIZATION ( #233, #196, #28 ) ;
#109 = ORIENTED_EDGE ( 'NONE', *, *, #234, .F. ) ;
#110 = APPROVAL_DATE_TIME ( #113, #196 ) ;
#111 = ORIENTED_EDGE ( 'NONE', *, *, #5, .F. ) ;
#112 = AXIS2_PLACEMENT_3D ( 'NONE', #50, #33, #168 ) ;
#113 = DATE_AND_TIME ( #59, #182 ) ;
#114 = PERSON_AND_ORGANIZATION_ROLE ( 'classification_officer' ) ;
#115 = VECTOR ( 'NONE', #15, 1000.000000000000000 ) ;
#116 = EDGE_LOOP ( 'NONE', ( #166, #64 ) ) ;
#117 = COORDINATED_UNIVERSAL_TIME_OFFSET ( 1, 0, .AHEAD. ) ;
#118 = CARTESIAN_POINT ( 'NONE',  ( 0.000000000000000000, 0.000000000000000000, 3.000000000000000000 ) ) ;
#119 = DIRECTION ( 'NONE',  ( 0.000000000000000000, 0.000000000000000000, 1.000000000000000000 ) ) ;
#120 = DIRECTION ( 'NONE',  ( 0.000000000000000000, 0.000000000000000000, 1.000000000000000000 ) ) ;
#121 = FACE_OUTER_BOUND ( 'NONE', #201, .T. ) ;
#122 = COORDINATED_UNIVERSAL_TIME_OFFSET ( 1, 0, .AHEAD. ) ;
#123 = CARTESIAN_POINT ( 'NONE',  ( 2.100000000000000089, 2.571758278209441464E-16, 3.000000000000000000 ) ) ;
#124 = EDGE_CURVE ( 'NONE', #144, #76, #208, .T. ) ;
#125 = ORIENTED_EDGE ( 'NONE', *, *, #124, .T. ) ;
#126 = CLOSED_SHELL ( 'NONE', ( #239, #52, #175, #215, #229, #146, #8 ) ) ;
#127 = ORIENTED_EDGE ( 'NONE', *, *, #195, .T. ) ;
#128 = EDGE_CURVE ( 'NONE', #142, #44, #180, .T. ) ;
#129 = APPROVAL ( #160, 'NEURÈENÝ' ) ;
#130 = APPROVAL_PERSON_ORGANIZATION ( #217, #129, #152 ) ;
#131 = FACE_OUTER_BOUND ( 'NONE', #149, .T. ) ;
#132 = COORDINATED_UNIVERSAL_TIME_OFFSET ( 1, 0, .AHEAD. ) ;
#133 = DIRECTION ( 'NONE',  ( 0.000000000000000000, 0.000000000000000000, 1.000000000000000000 ) ) ;
#134 = CARTESIAN_POINT ( 'NONE',  ( 0.000000000000000000, 0.000000000000000000, 3.000000000000000000 ) ) ;
#135 = SHAPE_DEFINITION_REPRESENTATION ( #87, #39 ) ;
#136 = CC_DESIGN_DATE_AND_TIME_ASSIGNMENT ( #184, #20, ( #74 ) ) ;
#137 = ORIENTED_EDGE ( 'NONE', *, *, #165, .T. ) ;
#138 = VECTOR ( 'NONE', #216, 1000.000000000000000 ) ;
#139 = LOCAL_TIME ( 16, 6, 38.00000000000000000, #117 ) ;
#140 = CALENDAR_DATE ( 2023, 13, 2 ) ;
#141 = CIRCLE ( 'NONE', #97, 2.100000000000000089 ) ;
#142 = VERTEX_POINT ( 'NONE', #123 ) ;
#143 = CIRCLE ( 'NONE', #245, 4.000000000000000000 ) ;
#144 = VERTEX_POINT ( 'NONE', #40 ) ;
#145 = CC_DESIGN_PERSON_AND_ORGANIZATION_ASSIGNMENT ( #226, #240, ( #147 ) ) ;
#146 = ADVANCED_FACE ( 'NONE', ( #79 ), #100, .T. ) ;
#147 = PRODUCT_DEFINITION_FORMATION_WITH_SPECIFIED_SOURCE ( 'LIBOVOLNÝ', '', #237, .NOT_KNOWN. ) ;
#148 = APPROVAL_ROLE ( '' ) ;
#149 = EDGE_LOOP ( 'NONE', ( #227, #235, #55, #10 ) ) ;
#150 = LINE ( 'NONE', #13, #104 ) ;
#151 = ORIENTED_EDGE ( 'NONE', *, *, #128, .F. ) ;
#152 = APPROVAL_ROLE ( '' ) ;
#153 = DATE_AND_TIME ( #58, #173 ) ;
#154 = PERSON_AND_ORGANIZATION ( #25, #4 ) ;
#155 = APPLICATION_CONTEXT ( 'configuration controlled 3d designs of mechanical parts and assemblies' ) ;
#156 = DIRECTION ( 'NONE',  ( -0.000000000000000000, -0.000000000000000000, -1.000000000000000000 ) ) ;
#157 = DIRECTION ( 'NONE',  ( 1.000000000000000000, 0.000000000000000000, 0.000000000000000000 ) ) ;
#158 = APPLICATION_PROTOCOL_DEFINITION ( 'international standard', 'config_control_design', 1994, #155 ) ;
#159 = DIRECTION ( 'NONE',  ( -1.000000000000000000, 0.000000000000000000, 0.000000000000000000 ) ) ;
#160 = APPROVAL_STATUS ( 'not_yet_approved' ) ;
#161 = EDGE_LOOP ( 'NONE', ( #95, #137 ) ) ;
#162 = AXIS2_PLACEMENT_3D ( 'NONE', #7, #14, #57 ) ;
#163 = AXIS2_PLACEMENT_3D ( 'NONE', #11, #92, #171 ) ;
#164 = AXIS2_PLACEMENT_3D ( 'NONE', #118, #202, #19 ) ;
#165 = EDGE_CURVE ( 'NONE', #218, #214, #177, .T. ) ;
#166 = ORIENTED_EDGE ( 'NONE', *, *, #200, .F. ) ;
#167 = CIRCLE ( 'NONE', #6, 2.100000000000000089 ) ;
#168 = DIRECTION ( 'NONE',  ( 1.000000000000000000, 0.000000000000000000, -0.000000000000000000 ) ) ;
#169 = CC_DESIGN_APPROVAL ( #69, ( #204 ) ) ;
#170 = DIRECTION ( 'NONE',  ( 0.000000000000000000, 0.000000000000000000, 1.000000000000000000 ) ) ;
#171 = DIRECTION ( 'NONE',  ( -1.000000000000000000, 0.000000000000000000, 0.000000000000000000 ) ) ;
#172 = DIRECTION ( 'NONE',  ( -0.000000000000000000, -0.000000000000000000, -1.000000000000000000 ) ) ;
#173 = LOCAL_TIME ( 16, 6, 38.00000000000000000, #53 ) ;
#174 = SECURITY_CLASSIFICATION_LEVEL ( 'unclassified' ) ;
#175 = ADVANCED_FACE ( 'NONE', ( #121 ), #231, .T. ) ;
#176 = FACE_OUTER_BOUND ( 'NONE', #161, .T. ) ;
#177 = CIRCLE ( 'NONE', #67, 2.100000000000000089 ) ;
#178 = AXIS2_PLACEMENT_3D ( 'NONE', #181, #84, #107 ) ;
#179 = CYLINDRICAL_SURFACE ( 'NONE', #45, 4.000000000000000000 ) ;
#180 = CIRCLE ( 'NONE', #70, 2.100000000000000089 ) ;
#181 = CARTESIAN_POINT ( 'NONE',  ( 0.000000000000000000, 0.000000000000000000, 0.000000000000000000 ) ) ;
#182 = LOCAL_TIME ( 16, 6, 38.00000000000000000, #3 ) ;
#183 = ORIENTED_EDGE ( 'NONE', *, *, #220, .F. ) ;
#184 = DATE_AND_TIME ( #199, #139 ) ;
#185 = UNCERTAINTY_MEASURE_WITH_UNIT (LENGTH_MEASURE( 1.000000000000000082E-05 ), #223, 'distance_accuracy_value', 'NONE');
#186 = EDGE_LOOP ( 'NONE', ( #183, #205, #91, #38 ) ) ;
#187 = CC_DESIGN_PERSON_AND_ORGANIZATION_ASSIGNMENT ( #230, #62, ( #237 ) ) ;
#188 = PLANE ( 'NONE',  #42 ) ;
#189 = CYLINDRICAL_SURFACE ( 'NONE', #163, 2.100000000000000089 ) ;
#190 = DATE_AND_TIME ( #209, #27 ) ;
#191 = ORIENTED_EDGE ( 'NONE', *, *, #77, .T. ) ;
#192 = CARTESIAN_POINT ( 'NONE',  ( 0.000000000000000000, 0.000000000000000000, 3.000000000000000000 ) ) ;
#193 = ORIENTED_EDGE ( 'NONE', *, *, #195, .F. ) ;
#194 = PERSON_AND_ORGANIZATION ( #25, #4 ) ;
#195 = EDGE_CURVE ( 'NONE', #144, #249, #253, .T. ) ;
#196 = APPROVAL ( #203, 'NEURÈENÝ' ) ;
#197 = APPLICATION_CONTEXT ( 'configuration controlled 3d designs of mechanical parts and assemblies' ) ;
#198 = CARTESIAN_POINT ( 'NONE',  ( -4.000000000000000000, 0.000000000000000000, 3.000000000000000000 ) ) ;
#199 = CALENDAR_DATE ( 2023, 13, 2 ) ;
#200 = EDGE_CURVE ( 'NONE', #46, #249, #56, .T. ) ;
#201 = EDGE_LOOP ( 'NONE', ( #193, #106, #83, #26 ) ) ;
#202 = DIRECTION ( 'NONE',  ( -0.000000000000000000, -0.000000000000000000, -1.000000000000000000 ) ) ;
#203 = APPROVAL_STATUS ( 'not_yet_approved' ) ;
#204 = SECURITY_CLASSIFICATION ( '', '', #174 ) ;
#205 = ORIENTED_EDGE ( 'NONE', *, *, #30, .F. ) ;
#206 = FACE_BOUND ( 'NONE', #31, .T. ) ;
#207 = CARTESIAN_POINT ( 'NONE',  ( 2.100000000000000089, 2.571758278209441464E-16, 100.0000000000000000 ) ) ;
#208 = CIRCLE ( 'NONE', #162, 4.000000000000000000 ) ;
#209 = CALENDAR_DATE ( 2023, 13, 2 ) ;
#210 = CARTESIAN_POINT ( 'NONE',  ( -4.000000000000000000, 0.000000000000000000, 3.000000000000000000 ) ) ;
#211 = DIRECTION ( 'NONE',  ( 1.000000000000000000, 0.000000000000000000, -0.000000000000000000 ) ) ;
#212 = APPROVAL_STATUS ( 'not_yet_approved' ) ;
#213 = CARTESIAN_POINT ( 'NONE',  ( 2.100000000000000089, 2.571758278209441464E-16, 100.0000000000000000 ) ) ;
#214 = VERTEX_POINT ( 'NONE', #47 ) ;
#215 = ADVANCED_FACE ( 'NONE', ( #206, #236 ), #66, .T. ) ;
#216 = DIRECTION ( 'NONE',  ( -0.000000000000000000, -0.000000000000000000, -1.000000000000000000 ) ) ;
#217 = PERSON_AND_ORGANIZATION ( #25, #4 ) ;
#218 = VERTEX_POINT ( 'NONE', #213 ) ;
#219 = DATE_AND_TIME ( #140, #242 ) ;
#220 = EDGE_CURVE ( 'NONE', #218, #142, #36, .T. ) ;
#221 = CC_DESIGN_APPROVAL ( #129, ( #74 ) ) ;
#222 = CARTESIAN_POINT ( 'NONE',  ( -2.100000000000000089, 0.000000000000000000, 3.000000000000000000 ) ) ;
#223 =( LENGTH_UNIT ( ) NAMED_UNIT ( * ) SI_UNIT ( .MILLI., .METRE. ) );
#224 = CC_DESIGN_DATE_AND_TIME_ASSIGNMENT ( #153, #34, ( #204 ) ) ;
#225 = PERSON_AND_ORGANIZATION ( #25, #4 ) ;
#226 = PERSON_AND_ORGANIZATION ( #25, #4 ) ;
#227 = ORIENTED_EDGE ( 'NONE', *, *, #165, .F. ) ;
#228 = CARTESIAN_POINT ( 'NONE',  ( 0.000000000000000000, 0.000000000000000000, 0.000000000000000000 ) ) ;
#229 = ADVANCED_FACE ( 'NONE', ( #241 ), #90, .F. ) ;
#230 = PERSON_AND_ORGANIZATION ( #25, #4 ) ;
#231 = CYLINDRICAL_SURFACE ( 'NONE', #164, 4.000000000000000000 ) ;
#232 = CARTESIAN_POINT ( 'NONE',  ( 0.000000000000000000, 0.000000000000000000, 3.000000000000000000 ) ) ;
#233 = PERSON_AND_ORGANIZATION ( #25, #4 ) ;
#234 = EDGE_CURVE ( 'NONE', #44, #142, #141, .T. ) ;
#235 = ORIENTED_EDGE ( 'NONE', *, *, #220, .T. ) ;
#236 = FACE_OUTER_BOUND ( 'NONE', #2, .T. ) ;
#237 = PRODUCT ( '4037', '4037', '', ( #78 ) ) ;
#238 = ORIENTED_EDGE ( 'NONE', *, *, #124, .F. ) ;
#239 = ADVANCED_FACE ( 'NONE', ( #131 ), #189, .T. ) ;
#240 = PERSON_AND_ORGANIZATION_ROLE ( 'design_supplier' ) ;
#241 = FACE_OUTER_BOUND ( 'NONE', #116, .T. ) ;
#242 = LOCAL_TIME ( 16, 6, 38.00000000000000000, #122 ) ;
#243 = DIRECTION ( 'NONE',  ( 1.000000000000000000, 0.000000000000000000, 0.000000000000000000 ) ) ;
#244 = CARTESIAN_POINT ( 'NONE',  ( 4.000000000000000000, 4.898587196589412829E-16, 0.000000000000000000 ) ) ;
#245 = AXIS2_PLACEMENT_3D ( 'NONE', #228, #133, #12 ) ;
#246 = PERSON_AND_ORGANIZATION ( #25, #4 ) ;
#247 = EDGE_LOOP ( 'NONE', ( #238, #127, #17, #111 ) ) ;
#248 = CC_DESIGN_APPROVAL ( #196, ( #147 ) ) ;
#249 = VERTEX_POINT ( 'NONE', #244 ) ;
#250 = APPLICATION_PROTOCOL_DEFINITION ( 'international standard', 'config_control_design', 1994, #197 ) ;
#251 = DIRECTION ( 'NONE',  ( 1.000000000000000000, 0.000000000000000000, 0.000000000000000000 ) ) ;
#252 = CIRCLE ( 'NONE', #48, 4.000000000000000000 ) ;
#253 = LINE ( 'NONE', #81, #35 ) ;
#254 = CARTESIAN_POINT ( 'NONE',  ( 0.000000000000000000, 0.000000000000000000, 100.0000000000000000 ) ) ;
#255 = EDGE_CURVE ( 'NONE', #214, #44, #150, .T. ) ;
ENDSEC;
END-ISO-10303-21;
