ISO-10303-21;
HEADER;
FILE_DESCRIPTION (( 'STEP AP203' ),
    '1' );
FILE_NAME ('0ccc.STEP',
    '2023-02-13T10:18:01',
    ( '' ),
    ( '' ),
    'SwSTEP 2.0',
    'SolidWorks 2019',
    '' );
FILE_SCHEMA (( 'CONFIG_CONTROL_DESIGN' ));
ENDSEC;

DATA;
#1 = COORDINATED_UNIVERSAL_TIME_OFFSET ( 1, 0, .AHEAD. ) ;
#2 = LOCAL_TIME ( 11, 18, 1.000000000000000000, #1 ) ;
#3 = PERSON_AND_ORGANIZATION_ROLE ( 'design_supplier' ) ;
#4 = CARTESIAN_POINT ( 'NONE',  ( -6.250000000000000000, 0.000000000000000000, 7.000000000000000000 ) ) ;
#5 = PLANE ( 'NONE',  #38 ) ;
#6 = DIRECTION ( 'NONE',  ( 1.000000000000000000, 0.000000000000000000, 0.000000000000000000 ) ) ;
#7 = CARTESIAN_POINT ( 'NONE',  ( -6.250000000000000000, 0.000000000000000000, 250.0000000000000000 ) ) ;
#8 = APPROVAL ( #174, 'NEURÈENÝ' ) ;
#9 = CARTESIAN_POINT ( 'NONE',  ( 0.000000000000000000, 0.000000000000000000, 7.000000000000000000 ) ) ;
#10 = CARTESIAN_POINT ( 'NONE',  ( 0.000000000000000000, 0.000000000000000000, 0.000000000000000000 ) ) ;
#11 = ORIENTED_EDGE ( 'NONE', *, *, #163, .F. ) ;
#12 = DIRECTION ( 'NONE',  ( 1.000000000000000000, 0.000000000000000000, -0.000000000000000000 ) ) ;
#13 = DIRECTION ( 'NONE',  ( -0.000000000000000000, -0.000000000000000000, -1.000000000000000000 ) ) ;
#14 = AXIS2_PLACEMENT_3D ( 'NONE', #203, #39, #121 ) ;
#15 = ORIENTED_EDGE ( 'NONE', *, *, #137, .T. ) ;
#16 = CARTESIAN_POINT ( 'NONE',  ( 9.000000000000000000, 1.102182119232617714E-15, 7.000000000000000000 ) ) ;
#17 = ORIENTED_EDGE ( 'NONE', *, *, #26, .T. ) ;
#18 = ORIENTED_EDGE ( 'NONE', *, *, #20, .T. ) ;
#19 = DATE_AND_TIME ( #37, #117 ) ;
#20 = EDGE_CURVE ( 'NONE', #218, #36, #237, .T. ) ;
#21 = APPROVAL_ROLE ( '' ) ;
#22 = DATE_AND_TIME ( #82, #2 ) ;
#23 = APPLICATION_PROTOCOL_DEFINITION ( 'international standard', 'config_control_design', 1994, #123 ) ;
#24 = CC_DESIGN_DATE_AND_TIME_ASSIGNMENT ( #22, #56, ( #99 ) ) ;
#25 = DESIGN_CONTEXT ( 'detailed design', #91, 'design' ) ;
#26 = EDGE_CURVE ( 'NONE', #250, #218, #247, .T. ) ;
#27 = DIRECTION ( 'NONE',  ( 0.000000000000000000, 0.000000000000000000, 1.000000000000000000 ) ) ;
#28 = EDGE_LOOP ( 'NONE', ( #252, #154, #197, #79 ) ) ;
#29 = ORIENTED_EDGE ( 'NONE', *, *, #249, .F. ) ;
#30 = CARTESIAN_POINT ( 'NONE',  ( 0.000000000000000000, 0.000000000000000000, 7.000000000000000000 ) ) ;
#31 = SECURITY_CLASSIFICATION ( '', '', #120 ) ;
#32 = ORIENTED_EDGE ( 'NONE', *, *, #26, .F. ) ;
#33 = DIRECTION ( 'NONE',  ( 0.000000000000000000, 0.000000000000000000, 1.000000000000000000 ) ) ;
#34 = ORIENTED_EDGE ( 'NONE', *, *, #219, .F. ) ;
#35 = PERSON_AND_ORGANIZATION ( #224, #55 ) ;
#36 = VERTEX_POINT ( 'NONE', #4 ) ;
#37 = CALENDAR_DATE ( 2023, 13, 2 ) ;
#38 = AXIS2_PLACEMENT_3D ( 'NONE', #202, #240, #86 ) ;
#39 = DIRECTION ( 'NONE',  ( 0.000000000000000000, 0.000000000000000000, 1.000000000000000000 ) ) ;
#40 = ADVANCED_FACE ( 'NONE', ( #103 ), #5, .F. ) ;
#41 = CLOSED_SHELL ( 'NONE', ( #109, #213, #61, #165, #40, #132, #129 ) ) ;
#42 = AXIS2_PLACEMENT_3D ( 'NONE', #216, #27, #53 ) ;
#43 = CC_DESIGN_APPROVAL ( #73, ( #166 ) ) ;
#44 = MANIFOLD_SOLID_BREP ( 'Pøidat vysunutím3', #41 ) ;
#45 = APPROVAL_DATE_TIME ( #63, #57 ) ;
#46 =( GEOMETRIC_REPRESENTATION_CONTEXT ( 3 ) GLOBAL_UNCERTAINTY_ASSIGNED_CONTEXT ( ( #211 ) ) GLOBAL_UNIT_ASSIGNED_CONTEXT ( ( #142, #200, #141 ) ) REPRESENTATION_CONTEXT ( 'NONE', 'WORKASPACE' ) );
#47 = CARTESIAN_POINT ( 'NONE',  ( 0.000000000000000000, 0.000000000000000000, 7.000000000000000000 ) ) ;
#48 = DIRECTION ( 'NONE',  ( 0.000000000000000000, 0.000000000000000000, 1.000000000000000000 ) ) ;
#49 = DIRECTION ( 'NONE',  ( 1.000000000000000000, 0.000000000000000000, 0.000000000000000000 ) ) ;
#50 = DIRECTION ( 'NONE',  ( -0.000000000000000000, -0.000000000000000000, -1.000000000000000000 ) ) ;
#51 = EDGE_LOOP ( 'NONE', ( #34, #135 ) ) ;
#52 = EDGE_CURVE ( 'NONE', #114, #199, #189, .T. ) ;
#53 = DIRECTION ( 'NONE',  ( 1.000000000000000000, 0.000000000000000000, -0.000000000000000000 ) ) ;
#54 = AXIS2_PLACEMENT_3D ( 'NONE', #148, #13, #70 ) ;
#55 = ORGANIZATION ( 'NEURÈENÝ', 'NEURÈENÝ', '' ) ;
#56 = DATE_TIME_ROLE ( 'creation_date' ) ;
#57 = APPROVAL ( #127, 'NEURÈENÝ' ) ;
#58 = EDGE_LOOP ( 'NONE', ( #32, #81, #157, #119 ) ) ;
#59 = DIRECTION ( 'NONE',  ( 0.000000000000000000, 0.000000000000000000, 1.000000000000000000 ) ) ;
#60 = DIRECTION ( 'NONE',  ( -0.000000000000000000, -0.000000000000000000, -1.000000000000000000 ) ) ;
#61 = ADVANCED_FACE ( 'NONE', ( #69 ), #68, .T. ) ;
#62 = PRODUCT_DEFINITION_SHAPE ( 'NONE', 'NONE',  #99 ) ;
#63 = DATE_AND_TIME ( #244, #207 ) ;
#64 = CARTESIAN_POINT ( 'NONE',  ( -9.000000000000000000, 0.000000000000000000, 7.000000000000000000 ) ) ;
#65 = DIRECTION ( 'NONE',  ( 1.000000000000000000, 0.000000000000000000, 0.000000000000000000 ) ) ;
#66 = APPROVAL_PERSON_ORGANIZATION ( #186, #57, #87 ) ;
#67 = CC_DESIGN_PERSON_AND_ORGANIZATION_ASSIGNMENT ( #124, #223, ( #107 ) ) ;
#68 = CYLINDRICAL_SURFACE ( 'NONE', #54, 9.000000000000000000 ) ;
#69 = FACE_OUTER_BOUND ( 'NONE', #102, .T. ) ;
#70 = DIRECTION ( 'NONE',  ( -1.000000000000000000, 0.000000000000000000, 0.000000000000000000 ) ) ;
#71 = CARTESIAN_POINT ( 'NONE',  ( -9.000000000000000000, 0.000000000000000000, 7.000000000000000000 ) ) ;
#72 = EDGE_LOOP ( 'NONE', ( #254, #11 ) ) ;
#73 = APPROVAL ( #155, 'NEURÈENÝ' ) ;
#74 = CARTESIAN_POINT ( 'NONE',  ( -9.000000000000000000, 0.000000000000000000, 0.000000000000000000 ) ) ;
#75 = ORIENTED_EDGE ( 'NONE', *, *, #219, .T. ) ;
#76 = ORIENTED_EDGE ( 'NONE', *, *, #52, .F. ) ;
#77 = AXIS2_PLACEMENT_3D ( 'NONE', #10, #134, #95 ) ;
#78 = CC_DESIGN_PERSON_AND_ORGANIZATION_ASSIGNMENT ( #35, #3, ( #166 ) ) ;
#79 = ORIENTED_EDGE ( 'NONE', *, *, #137, .F. ) ;
#80 = PERSON_AND_ORGANIZATION_ROLE ( 'classification_officer' ) ;
#81 = ORIENTED_EDGE ( 'NONE', *, *, #249, .T. ) ;
#82 = CALENDAR_DATE ( 2023, 13, 2 ) ;
#83 = LOCAL_TIME ( 11, 18, 1.000000000000000000, #255 ) ;
#84 = APPROVAL_DATE_TIME ( #101, #73 ) ;
#85 = CC_DESIGN_PERSON_AND_ORGANIZATION_ASSIGNMENT ( #162, #80, ( #31 ) ) ;
#86 = DIRECTION ( 'NONE',  ( 1.000000000000000000, 0.000000000000000000, -0.000000000000000000 ) ) ;
#87 = APPROVAL_ROLE ( '' ) ;
#88 = EDGE_CURVE ( 'NONE', #199, #114, #93, .T. ) ;
#89 = CARTESIAN_POINT ( 'NONE',  ( 0.000000000000000000, 0.000000000000000000, 250.0000000000000000 ) ) ;
#90 = AXIS2_PLACEMENT_3D ( 'NONE', #198, #33, #12 ) ;
#91 = APPLICATION_CONTEXT ( 'configuration controlled 3d designs of mechanical parts and assemblies' ) ;
#92 = DIRECTION ( 'NONE',  ( 0.000000000000000000, 0.000000000000000000, 1.000000000000000000 ) ) ;
#93 = CIRCLE ( 'NONE', #160, 9.000000000000000000 ) ;
#94 = ORIENTED_EDGE ( 'NONE', *, *, #52, .T. ) ;
#95 = DIRECTION ( 'NONE',  ( 1.000000000000000000, 0.000000000000000000, 0.000000000000000000 ) ) ;
#96 = CC_DESIGN_SECURITY_CLASSIFICATION ( #31, ( #166 ) ) ;
#97 = ORIENTED_EDGE ( 'NONE', *, *, #122, .F. ) ;
#98 = CARTESIAN_POINT ( 'NONE',  ( 9.000000000000000000, 1.102182119232617714E-15, 7.000000000000000000 ) ) ;
#99 = PRODUCT_DEFINITION ( 'NEZNÁMÝ', '', #166, #25 ) ;
#100 = EDGE_LOOP ( 'NONE', ( #29, #97, #18, #192 ) ) ;
#101 = DATE_AND_TIME ( #180, #83 ) ;
#102 = EDGE_LOOP ( 'NONE', ( #234, #76, #15, #75 ) ) ;
#103 = FACE_OUTER_BOUND ( 'NONE', #51, .T. ) ;
#104 = PERSON_AND_ORGANIZATION ( #224, #55 ) ;
#105 = EDGE_CURVE ( 'NONE', #177, #140, #170, .T. ) ;
#106 = APPROVAL_ROLE ( '' ) ;
#107 = PRODUCT ( '0ccc', '0ccc', '', ( #206 ) ) ;
#108 = DIRECTION ( 'NONE',  ( 1.000000000000000000, 0.000000000000000000, 0.000000000000000000 ) ) ;
#109 = ADVANCED_FACE ( 'NONE', ( #131 ), #187, .T. ) ;
#110 = DATE_TIME_ROLE ( 'classification_date' ) ;
#111 = CYLINDRICAL_SURFACE ( 'NONE', #167, 6.250000000000000000 ) ;
#112 = DIRECTION ( 'NONE',  ( -1.000000000000000000, 0.000000000000000000, 0.000000000000000000 ) ) ;
#113 = PLANE ( 'NONE',  #90 ) ;
#114 = VERTEX_POINT ( 'NONE', #71 ) ;
#115 = DIRECTION ( 'NONE',  ( 0.000000000000000000, 0.000000000000000000, 1.000000000000000000 ) ) ;
#116 = DIRECTION ( 'NONE',  ( -0.000000000000000000, -0.000000000000000000, -1.000000000000000000 ) ) ;
#117 = LOCAL_TIME ( 11, 18, 1.000000000000000000, #239 ) ;
#118 = EDGE_CURVE ( 'NONE', #36, #152, #227, .T. ) ;
#119 = ORIENTED_EDGE ( 'NONE', *, *, #20, .F. ) ;
#120 = SECURITY_CLASSIFICATION_LEVEL ( 'unclassified' ) ;
#121 = DIRECTION ( 'NONE',  ( 1.000000000000000000, 0.000000000000000000, 0.000000000000000000 ) ) ;
#122 = EDGE_CURVE ( 'NONE', #218, #250, #179, .T. ) ;
#123 = APPLICATION_CONTEXT ( 'configuration controlled 3d designs of mechanical parts and assemblies' ) ;
#124 = PERSON_AND_ORGANIZATION ( #224, #55 ) ;
#125 = DIRECTION ( 'NONE',  ( -0.000000000000000000, -0.000000000000000000, -1.000000000000000000 ) ) ;
#126 = APPROVAL_PERSON_ORGANIZATION ( #104, #8, #21 ) ;
#127 = APPROVAL_STATUS ( 'not_yet_approved' ) ;
#128 = COORDINATED_UNIVERSAL_TIME_OFFSET ( 1, 0, .AHEAD. ) ;
#129 = ADVANCED_FACE ( 'NONE', ( #217 ), #113, .T. ) ;
#130 = FACE_OUTER_BOUND ( 'NONE', #100, .T. ) ;
#131 = FACE_OUTER_BOUND ( 'NONE', #58, .T. ) ;
#132 = ADVANCED_FACE ( 'NONE', ( #130 ), #111, .T. ) ;
#133 = PLANE ( 'NONE',  #42 ) ;
#134 = DIRECTION ( 'NONE',  ( 0.000000000000000000, 0.000000000000000000, 1.000000000000000000 ) ) ;
#135 = ORIENTED_EDGE ( 'NONE', *, *, #105, .F. ) ;
#136 = FACE_OUTER_BOUND ( 'NONE', #235, .T. ) ;
#137 = EDGE_CURVE ( 'NONE', #114, #140, #220, .T. ) ;
#138 = VECTOR ( 'NONE', #243, 1000.000000000000000 ) ;
#139 = DIRECTION ( 'NONE',  ( -1.000000000000000000, 0.000000000000000000, 0.000000000000000000 ) ) ;
#140 = VERTEX_POINT ( 'NONE', #74 ) ;
#141 =( NAMED_UNIT ( * ) SI_UNIT ( $, .STERADIAN. ) SOLID_ANGLE_UNIT ( ) );
#142 =( LENGTH_UNIT ( ) NAMED_UNIT ( * ) SI_UNIT ( .MILLI., .METRE. ) );
#143 = ADVANCED_BREP_SHAPE_REPRESENTATION ( '0ccc', ( #44, #14 ), #46 ) ;
#144 = CARTESIAN_POINT ( 'NONE',  ( 6.250000000000000000, 7.654042494670957606E-16, 250.0000000000000000 ) ) ;
#145 = DIRECTION ( 'NONE',  ( 1.000000000000000000, 0.000000000000000000, 0.000000000000000000 ) ) ;
#146 = AXIS2_PLACEMENT_3D ( 'NONE', #47, #230, #6 ) ;
#147 = DIRECTION ( 'NONE',  ( -0.000000000000000000, -0.000000000000000000, -1.000000000000000000 ) ) ;
#148 = CARTESIAN_POINT ( 'NONE',  ( 0.000000000000000000, 0.000000000000000000, 7.000000000000000000 ) ) ;
#149 = CC_DESIGN_DATE_AND_TIME_ASSIGNMENT ( #19, #110, ( #31 ) ) ;
#150 = CARTESIAN_POINT ( 'NONE',  ( 9.000000000000000000, 1.102182119232617714E-15, 0.000000000000000000 ) ) ;
#151 = LINE ( 'NONE', #173, #181 ) ;
#152 = VERTEX_POINT ( 'NONE', #195 ) ;
#153 = CARTESIAN_POINT ( 'NONE',  ( 0.000000000000000000, 0.000000000000000000, 7.000000000000000000 ) ) ;
#154 = ORIENTED_EDGE ( 'NONE', *, *, #176, .T. ) ;
#155 = APPROVAL_STATUS ( 'not_yet_approved' ) ;
#156 = LOCAL_TIME ( 11, 18, 1.000000000000000000, #241 ) ;
#157 = ORIENTED_EDGE ( 'NONE', *, *, #163, .T. ) ;
#158 = APPLICATION_PROTOCOL_DEFINITION ( 'international standard', 'config_control_design', 1994, #91 ) ;
#159 = PERSON_AND_ORGANIZATION ( #224, #55 ) ;
#160 = AXIS2_PLACEMENT_3D ( 'NONE', #9, #115, #65 ) ;
#161 = APPROVAL_PERSON_ORGANIZATION ( #222, #73, #106 ) ;
#162 = PERSON_AND_ORGANIZATION ( #224, #55 ) ;
#163 = EDGE_CURVE ( 'NONE', #152, #36, #228, .T. ) ;
#164 = CARTESIAN_POINT ( 'NONE',  ( 0.000000000000000000, 0.000000000000000000, 7.000000000000000000 ) ) ;
#165 = ADVANCED_FACE ( 'NONE', ( #236, #136 ), #133, .T. ) ;
#166 = PRODUCT_DEFINITION_FORMATION_WITH_SPECIFIED_SOURCE ( 'LIBOVOLNÝ', '', #107, .NOT_KNOWN. ) ;
#167 = AXIS2_PLACEMENT_3D ( 'NONE', #226, #116, #139 ) ;
#168 = CC_DESIGN_PERSON_AND_ORGANIZATION_ASSIGNMENT ( #204, #253, ( #99 ) ) ;
#169 = LINE ( 'NONE', #16, #229 ) ;
#170 = CIRCLE ( 'NONE', #194, 9.000000000000000000 ) ;
#171 = EDGE_LOOP ( 'NONE', ( #172, #17 ) ) ;
#172 = ORIENTED_EDGE ( 'NONE', *, *, #122, .T. ) ;
#173 = CARTESIAN_POINT ( 'NONE',  ( 6.250000000000000000, 7.654042494670957606E-16, 250.0000000000000000 ) ) ;
#174 = APPROVAL_STATUS ( 'not_yet_approved' ) ;
#175 = PERSON_AND_ORGANIZATION_ROLE ( 'creator' ) ;
#176 = EDGE_CURVE ( 'NONE', #199, #177, #169, .T. ) ;
#177 = VERTEX_POINT ( 'NONE', #150 ) ;
#178 = DATE_AND_TIME ( #201, #156 ) ;
#179 = CIRCLE ( 'NONE', #245, 6.250000000000000000 ) ;
#180 = CALENDAR_DATE ( 2023, 13, 2 ) ;
#181 = VECTOR ( 'NONE', #60, 1000.000000000000000 ) ;
#182 = CIRCLE ( 'NONE', #77, 9.000000000000000000 ) ;
#183 = DIRECTION ( 'NONE',  ( 0.000000000000000000, 0.000000000000000000, 1.000000000000000000 ) ) ;
#184 = AXIS2_PLACEMENT_3D ( 'NONE', #164, #59, #242 ) ;
#185 = AXIS2_PLACEMENT_3D ( 'NONE', #225, #183, #108 ) ;
#186 = PERSON_AND_ORGANIZATION ( #224, #55 ) ;
#187 = CYLINDRICAL_SURFACE ( 'NONE', #205, 6.250000000000000000 ) ;
#188 = CC_DESIGN_PERSON_AND_ORGANIZATION_ASSIGNMENT ( #159, #175, ( #166 ) ) ;
#189 = CIRCLE ( 'NONE', #184, 9.000000000000000000 ) ;
#190 = AXIS2_PLACEMENT_3D ( 'NONE', #30, #50, #112 ) ;
#191 = CYLINDRICAL_SURFACE ( 'NONE', #190, 9.000000000000000000 ) ;
#192 = ORIENTED_EDGE ( 'NONE', *, *, #118, .T. ) ;
#193 = DIRECTION ( 'NONE',  ( -0.000000000000000000, -0.000000000000000000, -1.000000000000000000 ) ) ;
#194 = AXIS2_PLACEMENT_3D ( 'NONE', #231, #48, #212 ) ;
#195 = CARTESIAN_POINT ( 'NONE',  ( 6.250000000000000000, 7.654042494670957606E-16, 7.000000000000000000 ) ) ;
#196 = CC_DESIGN_APPROVAL ( #8, ( #99 ) ) ;
#197 = ORIENTED_EDGE ( 'NONE', *, *, #105, .T. ) ;
#198 = CARTESIAN_POINT ( 'NONE',  ( 0.000000000000000000, 0.000000000000000000, 250.0000000000000000 ) ) ;
#199 = VERTEX_POINT ( 'NONE', #98 ) ;
#200 =( NAMED_UNIT ( * ) PLANE_ANGLE_UNIT ( ) SI_UNIT ( $, .RADIAN. ) );
#201 = CALENDAR_DATE ( 2023, 13, 2 ) ;
#202 = CARTESIAN_POINT ( 'NONE',  ( 0.000000000000000000, 0.000000000000000000, 0.000000000000000000 ) ) ;
#203 = CARTESIAN_POINT ( 'NONE',  ( 0.000000000000000000, 0.000000000000000000, 0.000000000000000000 ) ) ;
#204 = PERSON_AND_ORGANIZATION ( #224, #55 ) ;
#205 = AXIS2_PLACEMENT_3D ( 'NONE', #215, #147, #233 ) ;
#206 = MECHANICAL_CONTEXT ( 'NONE', #123, 'mechanical' ) ;
#207 = LOCAL_TIME ( 11, 18, 1.000000000000000000, #128 ) ;
#208 = PRODUCT_RELATED_PRODUCT_CATEGORY ( 'detail', '', ( #107 ) ) ;
#209 = SHAPE_DEFINITION_REPRESENTATION ( #62, #143 ) ;
#210 = AXIS2_PLACEMENT_3D ( 'NONE', #153, #92, #145 ) ;
#211 = UNCERTAINTY_MEASURE_WITH_UNIT (LENGTH_MEASURE( 1.000000000000000082E-05 ), #142, 'distance_accuracy_value', 'NONE');
#212 = DIRECTION ( 'NONE',  ( 1.000000000000000000, 0.000000000000000000, 0.000000000000000000 ) ) ;
#213 = ADVANCED_FACE ( 'NONE', ( #214 ), #191, .T. ) ;
#214 = FACE_OUTER_BOUND ( 'NONE', #28, .T. ) ;
#215 = CARTESIAN_POINT ( 'NONE',  ( 0.000000000000000000, 0.000000000000000000, 250.0000000000000000 ) ) ;
#216 = CARTESIAN_POINT ( 'NONE',  ( 0.000000000000000000, 0.000000000000000000, 7.000000000000000000 ) ) ;
#217 = FACE_OUTER_BOUND ( 'NONE', #171, .T. ) ;
#218 = VERTEX_POINT ( 'NONE', #7 ) ;
#219 = EDGE_CURVE ( 'NONE', #140, #177, #182, .T. ) ;
#220 = LINE ( 'NONE', #64, #138 ) ;
#221 = CC_DESIGN_APPROVAL ( #57, ( #31 ) ) ;
#222 = PERSON_AND_ORGANIZATION ( #224, #55 ) ;
#223 = PERSON_AND_ORGANIZATION_ROLE ( 'design_owner' ) ;
#224 = PERSON ( 'NEURÈENÝ', 'NEURÈENÝ', 'NEURÈENÝ', ('NEURÈENÝ'), ('NEURÈENÝ'), ('NEURÈENÝ') ) ;
#225 = CARTESIAN_POINT ( 'NONE',  ( 0.000000000000000000, 0.000000000000000000, 250.0000000000000000 ) ) ;
#226 = CARTESIAN_POINT ( 'NONE',  ( 0.000000000000000000, 0.000000000000000000, 250.0000000000000000 ) ) ;
#227 = CIRCLE ( 'NONE', #146, 6.250000000000000000 ) ;
#228 = CIRCLE ( 'NONE', #210, 6.250000000000000000 ) ;
#229 = VECTOR ( 'NONE', #193, 1000.000000000000000 ) ;
#230 = DIRECTION ( 'NONE',  ( 0.000000000000000000, 0.000000000000000000, 1.000000000000000000 ) ) ;
#231 = CARTESIAN_POINT ( 'NONE',  ( 0.000000000000000000, 0.000000000000000000, 0.000000000000000000 ) ) ;
#232 = VECTOR ( 'NONE', #125, 1000.000000000000000 ) ;
#233 = DIRECTION ( 'NONE',  ( -1.000000000000000000, 0.000000000000000000, 0.000000000000000000 ) ) ;
#234 = ORIENTED_EDGE ( 'NONE', *, *, #176, .F. ) ;
#235 = EDGE_LOOP ( 'NONE', ( #94, #238 ) ) ;
#236 = FACE_BOUND ( 'NONE', #72, .T. ) ;
#237 = LINE ( 'NONE', #248, #232 ) ;
#238 = ORIENTED_EDGE ( 'NONE', *, *, #88, .T. ) ;
#239 = COORDINATED_UNIVERSAL_TIME_OFFSET ( 1, 0, .AHEAD. ) ;
#240 = DIRECTION ( 'NONE',  ( 0.000000000000000000, 0.000000000000000000, 1.000000000000000000 ) ) ;
#241 = COORDINATED_UNIVERSAL_TIME_OFFSET ( 1, 0, .AHEAD. ) ;
#242 = DIRECTION ( 'NONE',  ( 1.000000000000000000, 0.000000000000000000, 0.000000000000000000 ) ) ;
#243 = DIRECTION ( 'NONE',  ( -0.000000000000000000, -0.000000000000000000, -1.000000000000000000 ) ) ;
#244 = CALENDAR_DATE ( 2023, 13, 2 ) ;
#245 = AXIS2_PLACEMENT_3D ( 'NONE', #89, #246, #49 ) ;
#246 = DIRECTION ( 'NONE',  ( 0.000000000000000000, 0.000000000000000000, 1.000000000000000000 ) ) ;
#247 = CIRCLE ( 'NONE', #185, 6.250000000000000000 ) ;
#248 = CARTESIAN_POINT ( 'NONE',  ( -6.250000000000000000, 0.000000000000000000, 250.0000000000000000 ) ) ;
#249 = EDGE_CURVE ( 'NONE', #250, #152, #151, .T. ) ;
#250 = VERTEX_POINT ( 'NONE', #144 ) ;
#251 = APPROVAL_DATE_TIME ( #178, #8 ) ;
#252 = ORIENTED_EDGE ( 'NONE', *, *, #88, .F. ) ;
#253 = PERSON_AND_ORGANIZATION_ROLE ( 'creator' ) ;
#254 = ORIENTED_EDGE ( 'NONE', *, *, #118, .F. ) ;
#255 = COORDINATED_UNIVERSAL_TIME_OFFSET ( 1, 0, .AHEAD. ) ;
ENDSEC;
END-ISO-10303-21;
