ISO-10303-21;
HEADER;
FILE_DESCRIPTION (( 'STEP AP203' ),
    '1' );
FILE_NAME ('263a.STEP',
    '2023-02-13T15:37:37',
    ( '' ),
    ( '' ),
    'SwSTEP 2.0',
    'SolidWorks 2019',
    '' );
FILE_SCHEMA (( 'CONFIG_CONTROL_DESIGN' ));
ENDSEC;

DATA;
#1 = APPROVAL_DATE_TIME ( #145, #171 ) ;
#2 = AXIS2_PLACEMENT_3D ( 'NONE', #165, #36, #109 ) ;
#3 = PERSON_AND_ORGANIZATION ( #56, #154 ) ;
#4 = EDGE_LOOP ( 'NONE', ( #79, #21 ) ) ;
#5 = PRODUCT_DEFINITION_FORMATION_WITH_SPECIFIED_SOURCE ( 'LIBOVOLNÝ', '', #110, .NOT_KNOWN. ) ;
#6 = PERSON_AND_ORGANIZATION ( #56, #154 ) ;
#7 = ORIENTED_EDGE ( 'NONE', *, *, #114, .T. ) ;
#8 = FACE_BOUND ( 'NONE', #118, .T. ) ;
#9 = LINE ( 'NONE', #163, #26 ) ;
#10 = APPROVAL_PERSON_ORGANIZATION ( #42, #171, #214 ) ;
#11 = DIRECTION ( 'NONE',  ( -0.000000000000000000, -0.000000000000000000, -1.000000000000000000 ) ) ;
#12 = MANIFOLD_SOLID_BREP ( 'Pøidat vysunutím3', #144 ) ;
#13 = DIRECTION ( 'NONE',  ( -0.000000000000000000, -0.000000000000000000, -1.000000000000000000 ) ) ;
#14 = PRODUCT_DEFINITION ( 'NEZNÁMÝ', '', #5, #112 ) ;
#15 = CARTESIAN_POINT ( 'NONE',  ( 3.000000000000000444, 3.673940397442060361E-16, 0.000000000000000000 ) ) ;
#16 = DIRECTION ( 'NONE',  ( 1.000000000000000000, 0.000000000000000000, -0.000000000000000000 ) ) ;
#17 = DIRECTION ( 'NONE',  ( 0.000000000000000000, 0.000000000000000000, 1.000000000000000000 ) ) ;
#18 = CIRCLE ( 'NONE', #234, 1.500000000000000222 ) ;
#19 = VERTEX_POINT ( 'NONE', #181 ) ;
#20 = EDGE_CURVE ( 'NONE', #101, #19, #178, .T. ) ;
#21 = ORIENTED_EDGE ( 'NONE', *, *, #239, .T. ) ;
#22 = DIRECTION ( 'NONE',  ( 1.000000000000000000, 0.000000000000000000, 0.000000000000000000 ) ) ;
#23 = CC_DESIGN_PERSON_AND_ORGANIZATION_ASSIGNMENT ( #58, #176, ( #110 ) ) ;
#24 = LOCAL_TIME ( 16, 37, 37.00000000000000000, #139 ) ;
#25 = PERSON_AND_ORGANIZATION ( #56, #154 ) ;
#26 = VECTOR ( 'NONE', #226, 1000.000000000000000 ) ;
#27 = CALENDAR_DATE ( 2023, 13, 2 ) ;
#28 = ORIENTED_EDGE ( 'NONE', *, *, #173, .F. ) ;
#29 = LOCAL_TIME ( 16, 37, 37.00000000000000000, #216 ) ;
#30 = DIRECTION ( 'NONE',  ( 0.000000000000000000, 0.000000000000000000, 1.000000000000000000 ) ) ;
#31 = CARTESIAN_POINT ( 'NONE',  ( -3.000000000000000444, 0.000000000000000000, 3.000000000000000000 ) ) ;
#32 = CC_DESIGN_PERSON_AND_ORGANIZATION_ASSIGNMENT ( #25, #207, ( #5 ) ) ;
#33 = DIRECTION ( 'NONE',  ( -1.000000000000000000, 0.000000000000000000, 0.000000000000000000 ) ) ;
#34 = CARTESIAN_POINT ( 'NONE',  ( 0.000000000000000000, 0.000000000000000000, 3.000000000000000000 ) ) ;
#35 = EDGE_CURVE ( 'NONE', #161, #157, #225, .T. ) ;
#36 = DIRECTION ( 'NONE',  ( -0.000000000000000000, -0.000000000000000000, -1.000000000000000000 ) ) ;
#37 = CARTESIAN_POINT ( 'NONE',  ( -1.500000000000000222, 0.000000000000000000, 160.0000000000000000 ) ) ;
#38 = CALENDAR_DATE ( 2023, 13, 2 ) ;
#39 = DIRECTION ( 'NONE',  ( 0.000000000000000000, 0.000000000000000000, 1.000000000000000000 ) ) ;
#40 = AXIS2_PLACEMENT_3D ( 'NONE', #229, #167, #55 ) ;
#41 = ORIENTED_EDGE ( 'NONE', *, *, #114, .F. ) ;
#42 = PERSON_AND_ORGANIZATION ( #56, #154 ) ;
#43 = VERTEX_POINT ( 'NONE', #212 ) ;
#44 = DATE_AND_TIME ( #27, #190 ) ;
#45 = EDGE_LOOP ( 'NONE', ( #28, #103, #221, #102 ) ) ;
#46 = CIRCLE ( 'NONE', #219, 3.000000000000000444 ) ;
#47 = VERTEX_POINT ( 'NONE', #213 ) ;
#48 = AXIS2_PLACEMENT_3D ( 'NONE', #149, #11, #54 ) ;
#49 = DIRECTION ( 'NONE',  ( -1.000000000000000000, 0.000000000000000000, 0.000000000000000000 ) ) ;
#50 = DIRECTION ( 'NONE',  ( 1.000000000000000000, 0.000000000000000000, -0.000000000000000000 ) ) ;
#51 = CC_DESIGN_DATE_AND_TIME_ASSIGNMENT ( #77, #237, ( #14 ) ) ;
#52 = DIRECTION ( 'NONE',  ( 0.000000000000000000, 0.000000000000000000, 1.000000000000000000 ) ) ;
#53 = CIRCLE ( 'NONE', #84, 1.500000000000000222 ) ;
#54 = DIRECTION ( 'NONE',  ( -1.000000000000000000, 0.000000000000000000, 0.000000000000000000 ) ) ;
#55 = DIRECTION ( 'NONE',  ( 1.000000000000000000, 0.000000000000000000, 0.000000000000000000 ) ) ;
#56 = PERSON ( 'NEURÈENÝ', 'NEURÈENÝ', 'NEURÈENÝ', ('NEURÈENÝ'), ('NEURÈENÝ'), ('NEURÈENÝ') ) ;
#57 = VECTOR ( 'NONE', #91, 1000.000000000000000 ) ;
#58 = PERSON_AND_ORGANIZATION ( #56, #154 ) ;
#59 = MECHANICAL_CONTEXT ( 'NONE', #135, 'mechanical' ) ;
#60 = ADVANCED_FACE ( 'NONE', ( #67 ), #82, .T. ) ;
#61 =( LENGTH_UNIT ( ) NAMED_UNIT ( * ) SI_UNIT ( .MILLI., .METRE. ) );
#62 = AXIS2_PLACEMENT_3D ( 'NONE', #236, #39, #16 ) ;
#63 = EDGE_LOOP ( 'NONE', ( #146, #131, #155, #241 ) ) ;
#64 = EDGE_CURVE ( 'NONE', #43, #47, #18, .T. ) ;
#65 = CC_DESIGN_APPROVAL ( #171, ( #5 ) ) ;
#66 = FACE_OUTER_BOUND ( 'NONE', #138, .T. ) ;
#67 = FACE_OUTER_BOUND ( 'NONE', #206, .T. ) ;
#68 = DIRECTION ( 'NONE',  ( 1.000000000000000000, 0.000000000000000000, 0.000000000000000000 ) ) ;
#69 = AXIS2_PLACEMENT_3D ( 'NONE', #185, #83, #33 ) ;
#70 = CYLINDRICAL_SURFACE ( 'NONE', #2, 3.000000000000000444 ) ;
#71 = DIRECTION ( 'NONE',  ( 0.000000000000000000, 0.000000000000000000, 1.000000000000000000 ) ) ;
#72 = PLANE ( 'NONE',  #62 ) ;
#73 = ORIENTED_EDGE ( 'NONE', *, *, #166, .F. ) ;
#74 = DIRECTION ( 'NONE',  ( 0.000000000000000000, 0.000000000000000000, 1.000000000000000000 ) ) ;
#75 = APPROVAL_STATUS ( 'not_yet_approved' ) ;
#76 = ORIENTED_EDGE ( 'NONE', *, *, #64, .T. ) ;
#77 = DATE_AND_TIME ( #38, #189 ) ;
#78 = SHAPE_DEFINITION_REPRESENTATION ( #153, #88 ) ;
#79 = ORIENTED_EDGE ( 'NONE', *, *, #20, .T. ) ;
#80 = CALENDAR_DATE ( 2023, 13, 2 ) ;
#81 = PERSON_AND_ORGANIZATION_ROLE ( 'creator' ) ;
#82 = CYLINDRICAL_SURFACE ( 'NONE', #48, 1.500000000000000222 ) ;
#83 = DIRECTION ( 'NONE',  ( -0.000000000000000000, -0.000000000000000000, -1.000000000000000000 ) ) ;
#84 = AXIS2_PLACEMENT_3D ( 'NONE', #227, #52, #107 ) ;
#85 = DIRECTION ( 'NONE',  ( 0.000000000000000000, 0.000000000000000000, 1.000000000000000000 ) ) ;
#86 = DIRECTION ( 'NONE',  ( 1.000000000000000000, 0.000000000000000000, -0.000000000000000000 ) ) ;
#87 = PRODUCT_RELATED_PRODUCT_CATEGORY ( 'detail', '', ( #110 ) ) ;
#88 = ADVANCED_BREP_SHAPE_REPRESENTATION ( '263a', ( #12, #252 ), #121 ) ;
#89 = CYLINDRICAL_SURFACE ( 'NONE', #195, 1.500000000000000222 ) ;
#90 = CIRCLE ( 'NONE', #116, 3.000000000000000444 ) ;
#91 = DIRECTION ( 'NONE',  ( -0.000000000000000000, -0.000000000000000000, -1.000000000000000000 ) ) ;
#92 = DIRECTION ( 'NONE',  ( 1.000000000000000000, 0.000000000000000000, 0.000000000000000000 ) ) ;
#93 = VECTOR ( 'NONE', #106, 1000.000000000000000 ) ;
#94 = FACE_OUTER_BOUND ( 'NONE', #218, .T. ) ;
#95 =( NAMED_UNIT ( * ) PLANE_ANGLE_UNIT ( ) SI_UNIT ( $, .RADIAN. ) );
#96 = CC_DESIGN_PERSON_AND_ORGANIZATION_ASSIGNMENT ( #130, #250, ( #14 ) ) ;
#97 = CALENDAR_DATE ( 2023, 13, 2 ) ;
#98 = ORIENTED_EDGE ( 'NONE', *, *, #35, .F. ) ;
#99 = ADVANCED_FACE ( 'NONE', ( #66 ), #108, .F. ) ;
#100 = SECURITY_CLASSIFICATION ( '', '', #180 ) ;
#101 = VERTEX_POINT ( 'NONE', #243 ) ;
#102 = ORIENTED_EDGE ( 'NONE', *, *, #166, .T. ) ;
#103 = ORIENTED_EDGE ( 'NONE', *, *, #20, .F. ) ;
#104 = CIRCLE ( 'NONE', #255, 1.500000000000000222 ) ;
#105 = FACE_OUTER_BOUND ( 'NONE', #175, .T. ) ;
#106 = DIRECTION ( 'NONE',  ( -0.000000000000000000, -0.000000000000000000, -1.000000000000000000 ) ) ;
#107 = DIRECTION ( 'NONE',  ( 1.000000000000000000, 0.000000000000000000, 0.000000000000000000 ) ) ;
#108 = PLANE ( 'NONE',  #193 ) ;
#109 = DIRECTION ( 'NONE',  ( -1.000000000000000000, 0.000000000000000000, 0.000000000000000000 ) ) ;
#110 = PRODUCT ( '263a', '263a', '', ( #59 ) ) ;
#111 = COORDINATED_UNIVERSAL_TIME_OFFSET ( 1, 0, .AHEAD. ) ;
#112 = DESIGN_CONTEXT ( 'detailed design', #119, 'design' ) ;
#113 = DIRECTION ( 'NONE',  ( 1.000000000000000000, 0.000000000000000000, 0.000000000000000000 ) ) ;
#114 = EDGE_CURVE ( 'NONE', #47, #43, #104, .T. ) ;
#115 = CARTESIAN_POINT ( 'NONE',  ( -3.000000000000000444, 0.000000000000000000, 0.000000000000000000 ) ) ;
#116 = AXIS2_PLACEMENT_3D ( 'NONE', #117, #74, #22 ) ;
#117 = CARTESIAN_POINT ( 'NONE',  ( 0.000000000000000000, 0.000000000000000000, 3.000000000000000000 ) ) ;
#118 = EDGE_LOOP ( 'NONE', ( #41, #122 ) ) ;
#119 = APPLICATION_CONTEXT ( 'configuration controlled 3d designs of mechanical parts and assemblies' ) ;
#120 = PERSON_AND_ORGANIZATION ( #56, #154 ) ;
#121 =( GEOMETRIC_REPRESENTATION_CONTEXT ( 3 ) GLOBAL_UNCERTAINTY_ASSIGNED_CONTEXT ( ( #245 ) ) GLOBAL_UNIT_ASSIGNED_CONTEXT ( ( #61, #95, #172 ) ) REPRESENTATION_CONTEXT ( 'NONE', 'WORKASPACE' ) );
#122 = ORIENTED_EDGE ( 'NONE', *, *, #64, .F. ) ;
#123 = PERSON_AND_ORGANIZATION_ROLE ( 'classification_officer' ) ;
#124 = FACE_OUTER_BOUND ( 'NONE', #4, .T. ) ;
#125 = CYLINDRICAL_SURFACE ( 'NONE', #69, 3.000000000000000444 ) ;
#126 = CARTESIAN_POINT ( 'NONE',  ( -1.500000000000000222, 0.000000000000000000, 160.0000000000000000 ) ) ;
#127 = CARTESIAN_POINT ( 'NONE',  ( 0.000000000000000000, 0.000000000000000000, 160.0000000000000000 ) ) ;
#128 = AXIS2_PLACEMENT_3D ( 'NONE', #147, #162, #244 ) ;
#129 = FACE_OUTER_BOUND ( 'NONE', #45, .T. ) ;
#130 = PERSON_AND_ORGANIZATION ( #56, #154 ) ;
#131 = ORIENTED_EDGE ( 'NONE', *, *, #173, .T. ) ;
#132 = COORDINATED_UNIVERSAL_TIME_OFFSET ( 1, 0, .AHEAD. ) ;
#133 = APPLICATION_PROTOCOL_DEFINITION ( 'international standard', 'config_control_design', 1994, #119 ) ;
#134 = APPROVAL_ROLE ( '' ) ;
#135 = APPLICATION_CONTEXT ( 'configuration controlled 3d designs of mechanical parts and assemblies' ) ;
#136 = AXIS2_PLACEMENT_3D ( 'NONE', #210, #152, #86 ) ;
#137 = ADVANCED_FACE ( 'NONE', ( #228 ), #70, .T. ) ;
#138 = EDGE_LOOP ( 'NONE', ( #73, #238 ) ) ;
#139 = COORDINATED_UNIVERSAL_TIME_OFFSET ( 1, 0, .AHEAD. ) ;
#140 = VERTEX_POINT ( 'NONE', #15 ) ;
#141 = ADVANCED_FACE ( 'NONE', ( #105 ), #89, .T. ) ;
#142 = APPROVAL_PERSON_ORGANIZATION ( #6, #160, #223 ) ;
#143 = ADVANCED_FACE ( 'NONE', ( #8, #124 ), #187, .T. ) ;
#144 = CLOSED_SHELL ( 'NONE', ( #60, #137, #168, #143, #99, #141, #247 ) ) ;
#145 = DATE_AND_TIME ( #97, #197 ) ;
#146 = ORIENTED_EDGE ( 'NONE', *, *, #239, .F. ) ;
#147 = CARTESIAN_POINT ( 'NONE',  ( 0.000000000000000000, 0.000000000000000000, 3.000000000000000000 ) ) ;
#148 = CARTESIAN_POINT ( 'NONE',  ( 1.500000000000000222, 1.836970198721030181E-16, 160.0000000000000000 ) ) ;
#149 = CARTESIAN_POINT ( 'NONE',  ( 0.000000000000000000, 0.000000000000000000, 160.0000000000000000 ) ) ;
#150 = CARTESIAN_POINT ( 'NONE',  ( 0.000000000000000000, 0.000000000000000000, 160.0000000000000000 ) ) ;
#151 = VECTOR ( 'NONE', #233, 1000.000000000000000 ) ;
#152 = DIRECTION ( 'NONE',  ( 0.000000000000000000, 0.000000000000000000, 1.000000000000000000 ) ) ;
#153 = PRODUCT_DEFINITION_SHAPE ( 'NONE', 'NONE',  #14 ) ;
#154 = ORGANIZATION ( 'NEURÈENÝ', 'NEURÈENÝ', '' ) ;
#155 = ORIENTED_EDGE ( 'NONE', *, *, #235, .T. ) ;
#156 = LINE ( 'NONE', #174, #57 ) ;
#157 = VERTEX_POINT ( 'NONE', #126 ) ;
#158 = ORIENTED_EDGE ( 'NONE', *, *, #192, .F. ) ;
#159 = ORIENTED_EDGE ( 'NONE', *, *, #202, .T. ) ;
#160 = APPROVAL ( #203, 'NEURÈENÝ' ) ;
#161 = VERTEX_POINT ( 'NONE', #148 ) ;
#162 = DIRECTION ( 'NONE',  ( 0.000000000000000000, 0.000000000000000000, 1.000000000000000000 ) ) ;
#163 = CARTESIAN_POINT ( 'NONE',  ( 3.000000000000000444, 3.673940397442060361E-16, 3.000000000000000000 ) ) ;
#164 = CIRCLE ( 'NONE', #40, 3.000000000000000444 ) ;
#165 = CARTESIAN_POINT ( 'NONE',  ( 0.000000000000000000, 0.000000000000000000, 3.000000000000000000 ) ) ;
#166 = EDGE_CURVE ( 'NONE', #253, #140, #164, .T. ) ;
#167 = DIRECTION ( 'NONE',  ( 0.000000000000000000, 0.000000000000000000, 1.000000000000000000 ) ) ;
#168 = ADVANCED_FACE ( 'NONE', ( #129 ), #125, .T. ) ;
#169 = CARTESIAN_POINT ( 'NONE',  ( 0.000000000000000000, 0.000000000000000000, 3.000000000000000000 ) ) ;
#170 = CC_DESIGN_APPROVAL ( #232, ( #14 ) ) ;
#171 = APPROVAL ( #230, 'NEURÈENÝ' ) ;
#172 =( NAMED_UNIT ( * ) SI_UNIT ( $, .STERADIAN. ) SOLID_ANGLE_UNIT ( ) );
#173 = EDGE_CURVE ( 'NONE', #19, #140, #9, .T. ) ;
#174 = CARTESIAN_POINT ( 'NONE',  ( 1.500000000000000222, 1.836970198721030181E-16, 160.0000000000000000 ) ) ;
#175 = EDGE_LOOP ( 'NONE', ( #209, #158, #242, #7 ) ) ;
#176 = PERSON_AND_ORGANIZATION_ROLE ( 'design_owner' ) ;
#177 = CC_DESIGN_DATE_AND_TIME_ASSIGNMENT ( #44, #182, ( #100 ) ) ;
#178 = CIRCLE ( 'NONE', #128, 3.000000000000000444 ) ;
#179 = APPROVAL_DATE_TIME ( #231, #232 ) ;
#180 = SECURITY_CLASSIFICATION_LEVEL ( 'unclassified' ) ;
#181 = CARTESIAN_POINT ( 'NONE',  ( 3.000000000000000444, 3.673940397442060361E-16, 3.000000000000000000 ) ) ;
#182 = DATE_TIME_ROLE ( 'classification_date' ) ;
#183 = CC_DESIGN_APPROVAL ( #160, ( #100 ) ) ;
#184 = ORIENTED_EDGE ( 'NONE', *, *, #217, .F. ) ;
#185 = CARTESIAN_POINT ( 'NONE',  ( 0.000000000000000000, 0.000000000000000000, 3.000000000000000000 ) ) ;
#186 = CC_DESIGN_PERSON_AND_ORGANIZATION_ASSIGNMENT ( #3, #81, ( #5 ) ) ;
#187 = PLANE ( 'NONE',  #136 ) ;
#188 = EDGE_CURVE ( 'NONE', #101, #253, #211, .T. ) ;
#189 = LOCAL_TIME ( 16, 37, 37.00000000000000000, #132 ) ;
#190 = LOCAL_TIME ( 16, 37, 37.00000000000000000, #205 ) ;
#191 = DIRECTION ( 'NONE',  ( 1.000000000000000000, 0.000000000000000000, 0.000000000000000000 ) ) ;
#192 = EDGE_CURVE ( 'NONE', #157, #161, #53, .T. ) ;
#193 = AXIS2_PLACEMENT_3D ( 'NONE', #224, #85, #50 ) ;
#194 = DIRECTION ( 'NONE',  ( 1.000000000000000000, 0.000000000000000000, 0.000000000000000000 ) ) ;
#195 = AXIS2_PLACEMENT_3D ( 'NONE', #150, #13, #49 ) ;
#196 = CARTESIAN_POINT ( 'NONE',  ( 0.000000000000000000, 0.000000000000000000, 0.000000000000000000 ) ) ;
#197 = LOCAL_TIME ( 16, 37, 37.00000000000000000, #111 ) ;
#198 = LINE ( 'NONE', #37, #151 ) ;
#199 = AXIS2_PLACEMENT_3D ( 'NONE', #127, #30, #191 ) ;
#200 = DATE_AND_TIME ( #80, #24 ) ;
#201 = ORIENTED_EDGE ( 'NONE', *, *, #192, .T. ) ;
#202 = EDGE_CURVE ( 'NONE', #161, #43, #156, .T. ) ;
#203 = APPROVAL_STATUS ( 'not_yet_approved' ) ;
#204 = ORIENTED_EDGE ( 'NONE', *, *, #35, .T. ) ;
#205 = COORDINATED_UNIVERSAL_TIME_OFFSET ( 1, 0, .AHEAD. ) ;
#206 = EDGE_LOOP ( 'NONE', ( #98, #159, #76, #184 ) ) ;
#207 = PERSON_AND_ORGANIZATION_ROLE ( 'design_supplier' ) ;
#208 = CC_DESIGN_SECURITY_CLASSIFICATION ( #100, ( #5 ) ) ;
#209 = ORIENTED_EDGE ( 'NONE', *, *, #202, .F. ) ;
#210 = CARTESIAN_POINT ( 'NONE',  ( 0.000000000000000000, 0.000000000000000000, 3.000000000000000000 ) ) ;
#211 = LINE ( 'NONE', #31, #93 ) ;
#212 = CARTESIAN_POINT ( 'NONE',  ( 1.500000000000000222, 1.836970198721030181E-16, 3.000000000000000000 ) ) ;
#213 = CARTESIAN_POINT ( 'NONE',  ( -1.500000000000000222, 0.000000000000000000, 3.000000000000000000 ) ) ;
#214 = APPROVAL_ROLE ( '' ) ;
#215 = APPROVAL_PERSON_ORGANIZATION ( #254, #232, #134 ) ;
#216 = COORDINATED_UNIVERSAL_TIME_OFFSET ( 1, 0, .AHEAD. ) ;
#217 = EDGE_CURVE ( 'NONE', #157, #47, #198, .T. ) ;
#218 = EDGE_LOOP ( 'NONE', ( #201, #204 ) ) ;
#219 = AXIS2_PLACEMENT_3D ( 'NONE', #196, #17, #113 ) ;
#220 = CARTESIAN_POINT ( 'NONE',  ( 0.000000000000000000, 0.000000000000000000, 0.000000000000000000 ) ) ;
#221 = ORIENTED_EDGE ( 'NONE', *, *, #188, .T. ) ;
#222 = CC_DESIGN_PERSON_AND_ORGANIZATION_ASSIGNMENT ( #120, #123, ( #100 ) ) ;
#223 = APPROVAL_ROLE ( '' ) ;
#224 = CARTESIAN_POINT ( 'NONE',  ( 0.000000000000000000, 0.000000000000000000, 0.000000000000000000 ) ) ;
#225 = CIRCLE ( 'NONE', #199, 1.500000000000000222 ) ;
#226 = DIRECTION ( 'NONE',  ( -0.000000000000000000, -0.000000000000000000, -1.000000000000000000 ) ) ;
#227 = CARTESIAN_POINT ( 'NONE',  ( 0.000000000000000000, 0.000000000000000000, 160.0000000000000000 ) ) ;
#228 = FACE_OUTER_BOUND ( 'NONE', #63, .T. ) ;
#229 = CARTESIAN_POINT ( 'NONE',  ( 0.000000000000000000, 0.000000000000000000, 0.000000000000000000 ) ) ;
#230 = APPROVAL_STATUS ( 'not_yet_approved' ) ;
#231 = DATE_AND_TIME ( #249, #29 ) ;
#232 = APPROVAL ( #75, 'NEURÈENÝ' ) ;
#233 = DIRECTION ( 'NONE',  ( -0.000000000000000000, -0.000000000000000000, -1.000000000000000000 ) ) ;
#234 = AXIS2_PLACEMENT_3D ( 'NONE', #34, #246, #68 ) ;
#235 = EDGE_CURVE ( 'NONE', #140, #253, #46, .T. ) ;
#236 = CARTESIAN_POINT ( 'NONE',  ( 0.000000000000000000, 0.000000000000000000, 160.0000000000000000 ) ) ;
#237 = DATE_TIME_ROLE ( 'creation_date' ) ;
#238 = ORIENTED_EDGE ( 'NONE', *, *, #235, .F. ) ;
#239 = EDGE_CURVE ( 'NONE', #19, #101, #90, .T. ) ;
#240 = APPROVAL_DATE_TIME ( #200, #160 ) ;
#241 = ORIENTED_EDGE ( 'NONE', *, *, #188, .F. ) ;
#242 = ORIENTED_EDGE ( 'NONE', *, *, #217, .T. ) ;
#243 = CARTESIAN_POINT ( 'NONE',  ( -3.000000000000000444, 0.000000000000000000, 3.000000000000000000 ) ) ;
#244 = DIRECTION ( 'NONE',  ( 1.000000000000000000, 0.000000000000000000, 0.000000000000000000 ) ) ;
#245 = UNCERTAINTY_MEASURE_WITH_UNIT (LENGTH_MEASURE( 1.000000000000000082E-05 ), #61, 'distance_accuracy_value', 'NONE');
#246 = DIRECTION ( 'NONE',  ( 0.000000000000000000, 0.000000000000000000, 1.000000000000000000 ) ) ;
#247 = ADVANCED_FACE ( 'NONE', ( #94 ), #72, .T. ) ;
#248 = DIRECTION ( 'NONE',  ( 0.000000000000000000, 0.000000000000000000, 1.000000000000000000 ) ) ;
#249 = CALENDAR_DATE ( 2023, 13, 2 ) ;
#250 = PERSON_AND_ORGANIZATION_ROLE ( 'creator' ) ;
#251 = APPLICATION_PROTOCOL_DEFINITION ( 'international standard', 'config_control_design', 1994, #135 ) ;
#252 = AXIS2_PLACEMENT_3D ( 'NONE', #220, #71, #92 ) ;
#253 = VERTEX_POINT ( 'NONE', #115 ) ;
#254 = PERSON_AND_ORGANIZATION ( #56, #154 ) ;
#255 = AXIS2_PLACEMENT_3D ( 'NONE', #169, #248, #194 ) ;
ENDSEC;
END-ISO-10303-21;
