ISO-10303-21;
HEADER;
FILE_DESCRIPTION (( 'STEP AP203' ),
    '1' );
FILE_NAME ('33db.STEP',
    '2023-02-13T12:53:57',
    ( '' ),
    ( '' ),
    'SwSTEP 2.0',
    'SolidWorks 2019',
    '' );
FILE_SCHEMA (( 'CONFIG_CONTROL_DESIGN' ));
ENDSEC;

DATA;
#1 = DIRECTION ( 'NONE',  ( -0.000000000000000000, -0.000000000000000000, -1.000000000000000000 ) ) ;
#2 = APPROVAL ( #123, 'NEURÈENÝ' ) ;
#3 = CARTESIAN_POINT ( 'NONE',  ( 0.000000000000000000, 0.000000000000000000, 5.000000000000000000 ) ) ;
#4 = FACE_OUTER_BOUND ( 'NONE', #148, .T. ) ;
#5 = AXIS2_PLACEMENT_3D ( 'NONE', #76, #159, #20 ) ;
#6 = APPROVAL_PERSON_ORGANIZATION ( #230, #2, #152 ) ;
#7 = PERSON_AND_ORGANIZATION ( #129, #178 ) ;
#8 = EDGE_LOOP ( 'NONE', ( #143, #96, #39, #30 ) ) ;
#9 = LOCAL_TIME ( 13, 53, 57.00000000000000000, #52 ) ;
#10 = DIRECTION ( 'NONE',  ( -0.000000000000000000, -0.000000000000000000, -1.000000000000000000 ) ) ;
#11 = ORIENTED_EDGE ( 'NONE', *, *, #54, .T. ) ;
#12 = ADVANCED_FACE ( 'NONE', ( #191 ), #171, .T. ) ;
#13 = CARTESIAN_POINT ( 'NONE',  ( 0.000000000000000000, 0.000000000000000000, 400.0000000000000000 ) ) ;
#14 = EDGE_CURVE ( 'NONE', #115, #57, #102, .T. ) ;
#15 = CC_DESIGN_SECURITY_CLASSIFICATION ( #235, ( #158 ) ) ;
#16 = EDGE_CURVE ( 'NONE', #195, #133, #124, .T. ) ;
#17 = VECTOR ( 'NONE', #10, 1000.000000000000000 ) ;
#18 = CIRCLE ( 'NONE', #251, 7.000000000000000000 ) ;
#19 = DATE_AND_TIME ( #198, #173 ) ;
#20 = DIRECTION ( 'NONE',  ( 1.000000000000000000, 0.000000000000000000, 0.000000000000000000 ) ) ;
#21 = APPROVAL ( #95, 'NEURÈENÝ' ) ;
#22 = PERSON_AND_ORGANIZATION_ROLE ( 'creator' ) ;
#23 = COORDINATED_UNIVERSAL_TIME_OFFSET ( 1, 0, .AHEAD. ) ;
#24 = ORIENTED_EDGE ( 'NONE', *, *, #87, .T. ) ;
#25 = DIRECTION ( 'NONE',  ( 1.000000000000000000, 0.000000000000000000, 0.000000000000000000 ) ) ;
#26 = EDGE_LOOP ( 'NONE', ( #24, #183 ) ) ;
#27 = PRODUCT_RELATED_PRODUCT_CATEGORY ( 'detail', '', ( #192 ) ) ;
#28 = PLANE ( 'NONE',  #140 ) ;
#29 = CARTESIAN_POINT ( 'NONE',  ( 4.099999999999999645, 5.021051876504146399E-16, 400.0000000000000000 ) ) ;
#30 = ORIENTED_EDGE ( 'NONE', *, *, #222, .T. ) ;
#31 = CARTESIAN_POINT ( 'NONE',  ( 0.000000000000000000, 0.000000000000000000, 5.000000000000000000 ) ) ;
#32 = DIRECTION ( 'NONE',  ( -1.000000000000000000, 0.000000000000000000, 0.000000000000000000 ) ) ;
#33 = CARTESIAN_POINT ( 'NONE',  ( 0.000000000000000000, 0.000000000000000000, 400.0000000000000000 ) ) ;
#34 = APPROVAL_DATE_TIME ( #90, #44 ) ;
#35 = PERSON_AND_ORGANIZATION ( #129, #178 ) ;
#36 = CARTESIAN_POINT ( 'NONE',  ( 0.000000000000000000, 0.000000000000000000, 0.000000000000000000 ) ) ;
#37 = EDGE_CURVE ( 'NONE', #115, #41, #228, .T. ) ;
#38 = DIRECTION ( 'NONE',  ( 0.000000000000000000, 0.000000000000000000, 1.000000000000000000 ) ) ;
#39 = ORIENTED_EDGE ( 'NONE', *, *, #16, .T. ) ;
#40 = DIRECTION ( 'NONE',  ( 1.000000000000000000, 0.000000000000000000, 0.000000000000000000 ) ) ;
#41 = VERTEX_POINT ( 'NONE', #71 ) ;
#42 = AXIS2_PLACEMENT_3D ( 'NONE', #31, #88, #32 ) ;
#43 = AXIS2_PLACEMENT_3D ( 'NONE', #150, #204, #25 ) ;
#44 = APPROVAL ( #214, 'NEURÈENÝ' ) ;
#45 = DIRECTION ( 'NONE',  ( -0.000000000000000000, -0.000000000000000000, -1.000000000000000000 ) ) ;
#46 = CALENDAR_DATE ( 2023, 13, 2 ) ;
#47 = AXIS2_PLACEMENT_3D ( 'NONE', #254, #211, #157 ) ;
#48 = CYLINDRICAL_SURFACE ( 'NONE', #42, 7.000000000000000000 ) ;
#49 = EDGE_CURVE ( 'NONE', #151, #195, #126, .T. ) ;
#50 = ORIENTED_EDGE ( 'NONE', *, *, #54, .F. ) ;
#51 = ORIENTED_EDGE ( 'NONE', *, *, #250, .F. ) ;
#52 = COORDINATED_UNIVERSAL_TIME_OFFSET ( 1, 0, .AHEAD. ) ;
#53 = FACE_BOUND ( 'NONE', #60, .T. ) ;
#54 = EDGE_CURVE ( 'NONE', #57, #115, #18, .T. ) ;
#55 = CIRCLE ( 'NONE', #43, 7.000000000000000000 ) ;
#56 = SHAPE_DEFINITION_REPRESENTATION ( #174, #63 ) ;
#57 = VERTEX_POINT ( 'NONE', #132 ) ;
#58 = FACE_OUTER_BOUND ( 'NONE', #26, .T. ) ;
#59 = LOCAL_TIME ( 13, 53, 57.00000000000000000, #69 ) ;
#60 = EDGE_LOOP ( 'NONE', ( #65, #51 ) ) ;
#61 = MANIFOLD_SOLID_BREP ( 'Pøidat vysunutím3', #245 ) ;
#62 = DIRECTION ( 'NONE',  ( 1.000000000000000000, 0.000000000000000000, -0.000000000000000000 ) ) ;
#63 = ADVANCED_BREP_SHAPE_REPRESENTATION ( '33db', ( #61, #114 ), #144 ) ;
#64 = DIRECTION ( 'NONE',  ( 1.000000000000000000, 0.000000000000000000, -0.000000000000000000 ) ) ;
#65 = ORIENTED_EDGE ( 'NONE', *, *, #222, .F. ) ;
#66 = EDGE_CURVE ( 'NONE', #41, #200, #131, .T. ) ;
#67 = DIRECTION ( 'NONE',  ( -1.000000000000000000, 0.000000000000000000, 0.000000000000000000 ) ) ;
#68 = APPLICATION_PROTOCOL_DEFINITION ( 'international standard', 'config_control_design', 1994, #225 ) ;
#69 = COORDINATED_UNIVERSAL_TIME_OFFSET ( 1, 0, .AHEAD. ) ;
#70 = CC_DESIGN_DATE_AND_TIME_ASSIGNMENT ( #239, #137, ( #235 ) ) ;
#71 = CARTESIAN_POINT ( 'NONE',  ( -7.000000000000000000, 0.000000000000000000, 0.000000000000000000 ) ) ;
#72 = AXIS2_PLACEMENT_3D ( 'NONE', #107, #1, #181 ) ;
#73 = AXIS2_PLACEMENT_3D ( 'NONE', #246, #97, #121 ) ;
#74 = ORIENTED_EDGE ( 'NONE', *, *, #136, .F. ) ;
#75 = APPROVAL_DATE_TIME ( #19, #21 ) ;
#76 = CARTESIAN_POINT ( 'NONE',  ( 0.000000000000000000, 0.000000000000000000, 0.000000000000000000 ) ) ;
#77 = DIRECTION ( 'NONE',  ( 0.000000000000000000, 0.000000000000000000, 1.000000000000000000 ) ) ;
#78 = CALENDAR_DATE ( 2023, 13, 2 ) ;
#79 = DIRECTION ( 'NONE',  ( 0.000000000000000000, 0.000000000000000000, 1.000000000000000000 ) ) ;
#80 =( NAMED_UNIT ( * ) SI_UNIT ( $, .STERADIAN. ) SOLID_ANGLE_UNIT ( ) );
#81 =( NAMED_UNIT ( * ) PLANE_ANGLE_UNIT ( ) SI_UNIT ( $, .RADIAN. ) );
#82 = ORIENTED_EDGE ( 'NONE', *, *, #250, .T. ) ;
#83 = EDGE_LOOP ( 'NONE', ( #74, #185, #177, #108 ) ) ;
#84 = CIRCLE ( 'NONE', #92, 4.099999999999999645 ) ;
#85 = VECTOR ( 'NONE', #146, 1000.000000000000000 ) ;
#86 = CIRCLE ( 'NONE', #202, 4.099999999999999645 ) ;
#87 = EDGE_CURVE ( 'NONE', #195, #151, #166, .T. ) ;
#88 = DIRECTION ( 'NONE',  ( -0.000000000000000000, -0.000000000000000000, -1.000000000000000000 ) ) ;
#89 = CC_DESIGN_PERSON_AND_ORGANIZATION_ASSIGNMENT ( #252, #101, ( #192 ) ) ;
#90 = DATE_AND_TIME ( #213, #209 ) ;
#91 = APPROVAL_ROLE ( '' ) ;
#92 = AXIS2_PLACEMENT_3D ( 'NONE', #141, #119, #40 ) ;
#93 = CC_DESIGN_APPROVAL ( #21, ( #158 ) ) ;
#94 = ORIENTED_EDGE ( 'NONE', *, *, #14, .T. ) ;
#95 = APPROVAL_STATUS ( 'not_yet_approved' ) ;
#96 = ORIENTED_EDGE ( 'NONE', *, *, #87, .F. ) ;
#97 = DIRECTION ( 'NONE',  ( 0.000000000000000000, 0.000000000000000000, 1.000000000000000000 ) ) ;
#98 = AXIS2_PLACEMENT_3D ( 'NONE', #153, #248, #67 ) ;
#99 = DIRECTION ( 'NONE',  ( -0.000000000000000000, -0.000000000000000000, -1.000000000000000000 ) ) ;
#100 = EDGE_LOOP ( 'NONE', ( #244, #169, #82, #135 ) ) ;
#101 = PERSON_AND_ORGANIZATION_ROLE ( 'design_owner' ) ;
#102 = CIRCLE ( 'NONE', #73, 7.000000000000000000 ) ;
#103 = DIRECTION ( 'NONE',  ( 0.000000000000000000, 0.000000000000000000, 1.000000000000000000 ) ) ;
#104 = APPROVAL_DATE_TIME ( #227, #2 ) ;
#105 = CARTESIAN_POINT ( 'NONE',  ( -7.000000000000000000, 0.000000000000000000, 5.000000000000000000 ) ) ;
#106 = PERSON_AND_ORGANIZATION ( #129, #178 ) ;
#107 = CARTESIAN_POINT ( 'NONE',  ( 0.000000000000000000, 0.000000000000000000, 400.0000000000000000 ) ) ;
#108 = ORIENTED_EDGE ( 'NONE', *, *, #66, .T. ) ;
#109 = AXIS2_PLACEMENT_3D ( 'NONE', #145, #99, #147 ) ;
#110 = CC_DESIGN_PERSON_AND_ORGANIZATION_ASSIGNMENT ( #164, #237, ( #158 ) ) ;
#111 = CARTESIAN_POINT ( 'NONE',  ( -4.099999999999999645, 0.000000000000000000, 5.000000000000000000 ) ) ;
#112 = ORIENTED_EDGE ( 'NONE', *, *, #242, .F. ) ;
#113 = CYLINDRICAL_SURFACE ( 'NONE', #109, 7.000000000000000000 ) ;
#114 = AXIS2_PLACEMENT_3D ( 'NONE', #155, #154, #127 ) ;
#115 = VERTEX_POINT ( 'NONE', #105 ) ;
#116 = PERSON_AND_ORGANIZATION ( #129, #178 ) ;
#117 = DIRECTION ( 'NONE',  ( 0.000000000000000000, 0.000000000000000000, 1.000000000000000000 ) ) ;
#118 = CARTESIAN_POINT ( 'NONE',  ( -7.000000000000000000, 0.000000000000000000, 5.000000000000000000 ) ) ;
#119 = DIRECTION ( 'NONE',  ( 0.000000000000000000, 0.000000000000000000, 1.000000000000000000 ) ) ;
#120 = DESIGN_CONTEXT ( 'detailed design', #186, 'design' ) ;
#121 = DIRECTION ( 'NONE',  ( 1.000000000000000000, 0.000000000000000000, 0.000000000000000000 ) ) ;
#122 = AXIS2_PLACEMENT_3D ( 'NONE', #13, #103, #207 ) ;
#123 = APPROVAL_STATUS ( 'not_yet_approved' ) ;
#124 = LINE ( 'NONE', #187, #85 ) ;
#125 = ADVANCED_FACE ( 'NONE', ( #138 ), #134, .T. ) ;
#126 = CIRCLE ( 'NONE', #122, 4.099999999999999645 ) ;
#127 = DIRECTION ( 'NONE',  ( 1.000000000000000000, 0.000000000000000000, 0.000000000000000000 ) ) ;
#128 = ADVANCED_FACE ( 'NONE', ( #4 ), #48, .T. ) ;
#129 = PERSON ( 'NEURÈENÝ', 'NEURÈENÝ', 'NEURÈENÝ', ('NEURÈENÝ'), ('NEURÈENÝ'), ('NEURÈENÝ') ) ;
#130 = CARTESIAN_POINT ( 'NONE',  ( 4.099999999999999645, 5.021051876504146399E-16, 5.000000000000000000 ) ) ;
#131 = CIRCLE ( 'NONE', #5, 7.000000000000000000 ) ;
#132 = CARTESIAN_POINT ( 'NONE',  ( 7.000000000000000000, 8.572527594031473190E-16, 5.000000000000000000 ) ) ;
#133 = VERTEX_POINT ( 'NONE', #111 ) ;
#134 = CYLINDRICAL_SURFACE ( 'NONE', #72, 4.099999999999999645 ) ;
#135 = ORIENTED_EDGE ( 'NONE', *, *, #16, .F. ) ;
#136 = EDGE_CURVE ( 'NONE', #57, #200, #196, .T. ) ;
#137 = DATE_TIME_ROLE ( 'classification_date' ) ;
#138 = FACE_OUTER_BOUND ( 'NONE', #100, .T. ) ;
#139 = CALENDAR_DATE ( 2023, 13, 2 ) ;
#140 = AXIS2_PLACEMENT_3D ( 'NONE', #33, #79, #64 ) ;
#141 = CARTESIAN_POINT ( 'NONE',  ( 0.000000000000000000, 0.000000000000000000, 5.000000000000000000 ) ) ;
#142 = CARTESIAN_POINT ( 'NONE',  ( -4.099999999999999645, 0.000000000000000000, 400.0000000000000000 ) ) ;
#143 = ORIENTED_EDGE ( 'NONE', *, *, #167, .F. ) ;
#144 =( GEOMETRIC_REPRESENTATION_CONTEXT ( 3 ) GLOBAL_UNCERTAINTY_ASSIGNED_CONTEXT ( ( #221 ) ) GLOBAL_UNIT_ASSIGNED_CONTEXT ( ( #223, #81, #80 ) ) REPRESENTATION_CONTEXT ( 'NONE', 'WORKASPACE' ) );
#145 = CARTESIAN_POINT ( 'NONE',  ( 0.000000000000000000, 0.000000000000000000, 5.000000000000000000 ) ) ;
#146 = DIRECTION ( 'NONE',  ( -0.000000000000000000, -0.000000000000000000, -1.000000000000000000 ) ) ;
#147 = DIRECTION ( 'NONE',  ( -1.000000000000000000, 0.000000000000000000, 0.000000000000000000 ) ) ;
#148 = EDGE_LOOP ( 'NONE', ( #50, #236, #163, #224 ) ) ;
#149 = CC_DESIGN_PERSON_AND_ORGANIZATION_ASSIGNMENT ( #106, #249, ( #215 ) ) ;
#150 = CARTESIAN_POINT ( 'NONE',  ( 0.000000000000000000, 0.000000000000000000, 0.000000000000000000 ) ) ;
#151 = VERTEX_POINT ( 'NONE', #238 ) ;
#152 = APPROVAL_ROLE ( '' ) ;
#153 = CARTESIAN_POINT ( 'NONE',  ( 0.000000000000000000, 0.000000000000000000, 400.0000000000000000 ) ) ;
#154 = DIRECTION ( 'NONE',  ( 0.000000000000000000, 0.000000000000000000, 1.000000000000000000 ) ) ;
#155 = CARTESIAN_POINT ( 'NONE',  ( 0.000000000000000000, 0.000000000000000000, 0.000000000000000000 ) ) ;
#156 = ADVANCED_FACE ( 'NONE', ( #53, #180 ), #199, .T. ) ;
#157 = DIRECTION ( 'NONE',  ( 1.000000000000000000, 0.000000000000000000, 0.000000000000000000 ) ) ;
#158 = PRODUCT_DEFINITION_FORMATION_WITH_SPECIFIED_SOURCE ( 'LIBOVOLNÝ', '', #192, .NOT_KNOWN. ) ;
#159 = DIRECTION ( 'NONE',  ( 0.000000000000000000, 0.000000000000000000, 1.000000000000000000 ) ) ;
#160 = VERTEX_POINT ( 'NONE', #130 ) ;
#161 = PERSON_AND_ORGANIZATION ( #129, #178 ) ;
#162 = CARTESIAN_POINT ( 'NONE',  ( 7.000000000000000000, 8.572527594031473190E-16, 5.000000000000000000 ) ) ;
#163 = ORIENTED_EDGE ( 'NONE', *, *, #242, .T. ) ;
#164 = PERSON_AND_ORGANIZATION ( #129, #178 ) ;
#165 = SECURITY_CLASSIFICATION_LEVEL ( 'unclassified' ) ;
#166 = CIRCLE ( 'NONE', #47, 4.099999999999999645 ) ;
#167 = EDGE_CURVE ( 'NONE', #151, #160, #220, .T. ) ;
#168 = AXIS2_PLACEMENT_3D ( 'NONE', #36, #117, #62 ) ;
#169 = ORIENTED_EDGE ( 'NONE', *, *, #167, .T. ) ;
#170 = ADVANCED_FACE ( 'NONE', ( #58 ), #28, .T. ) ;
#171 = CYLINDRICAL_SURFACE ( 'NONE', #98, 4.099999999999999645 ) ;
#172 = CC_DESIGN_PERSON_AND_ORGANIZATION_ASSIGNMENT ( #161, #22, ( #158 ) ) ;
#173 = LOCAL_TIME ( 13, 53, 57.00000000000000000, #23 ) ;
#174 = PRODUCT_DEFINITION_SHAPE ( 'NONE', 'NONE',  #215 ) ;
#175 = VECTOR ( 'NONE', #194, 1000.000000000000000 ) ;
#176 = ADVANCED_FACE ( 'NONE', ( #243 ), #113, .T. ) ;
#177 = ORIENTED_EDGE ( 'NONE', *, *, #37, .T. ) ;
#178 = ORGANIZATION ( 'NEURÈENÝ', 'NEURÈENÝ', '' ) ;
#179 = APPROVAL_ROLE ( '' ) ;
#180 = FACE_OUTER_BOUND ( 'NONE', #189, .T. ) ;
#181 = DIRECTION ( 'NONE',  ( -1.000000000000000000, 0.000000000000000000, 0.000000000000000000 ) ) ;
#182 = CARTESIAN_POINT ( 'NONE',  ( 7.000000000000000000, 8.572527594031473190E-16, 0.000000000000000000 ) ) ;
#183 = ORIENTED_EDGE ( 'NONE', *, *, #49, .T. ) ;
#184 = PERSON_AND_ORGANIZATION_ROLE ( 'classification_officer' ) ;
#185 = ORIENTED_EDGE ( 'NONE', *, *, #14, .F. ) ;
#186 = APPLICATION_CONTEXT ( 'configuration controlled 3d designs of mechanical parts and assemblies' ) ;
#187 = CARTESIAN_POINT ( 'NONE',  ( -4.099999999999999645, 0.000000000000000000, 400.0000000000000000 ) ) ;
#188 = CARTESIAN_POINT ( 'NONE',  ( 0.000000000000000000, 0.000000000000000000, 5.000000000000000000 ) ) ;
#189 = EDGE_LOOP ( 'NONE', ( #94, #11 ) ) ;
#190 = PLANE ( 'NONE',  #168 ) ;
#191 = FACE_OUTER_BOUND ( 'NONE', #8, .T. ) ;
#192 = PRODUCT ( '33db', '33db', '', ( #208 ) ) ;
#193 = COORDINATED_UNIVERSAL_TIME_OFFSET ( 1, 0, .AHEAD. ) ;
#194 = DIRECTION ( 'NONE',  ( -0.000000000000000000, -0.000000000000000000, -1.000000000000000000 ) ) ;
#195 = VERTEX_POINT ( 'NONE', #142 ) ;
#196 = LINE ( 'NONE', #162, #175 ) ;
#197 = LOCAL_TIME ( 13, 53, 57.00000000000000000, #193 ) ;
#198 = CALENDAR_DATE ( 2023, 13, 2 ) ;
#199 = PLANE ( 'NONE',  #233 ) ;
#200 = VERTEX_POINT ( 'NONE', #182 ) ;
#201 = DIRECTION ( 'NONE',  ( 0.000000000000000000, 0.000000000000000000, 1.000000000000000000 ) ) ;
#202 = AXIS2_PLACEMENT_3D ( 'NONE', #188, #38, #247 ) ;
#203 = EDGE_LOOP ( 'NONE', ( #212, #112 ) ) ;
#204 = DIRECTION ( 'NONE',  ( 0.000000000000000000, 0.000000000000000000, 1.000000000000000000 ) ) ;
#205 = APPROVAL_PERSON_ORGANIZATION ( #35, #21, #179 ) ;
#206 = ADVANCED_FACE ( 'NONE', ( #219 ), #190, .F. ) ;
#207 = DIRECTION ( 'NONE',  ( 1.000000000000000000, 0.000000000000000000, 0.000000000000000000 ) ) ;
#208 = MECHANICAL_CONTEXT ( 'NONE', #225, 'mechanical' ) ;
#209 = LOCAL_TIME ( 13, 53, 57.00000000000000000, #217 ) ;
#210 = CC_DESIGN_DATE_AND_TIME_ASSIGNMENT ( #218, #255, ( #215 ) ) ;
#211 = DIRECTION ( 'NONE',  ( 0.000000000000000000, 0.000000000000000000, 1.000000000000000000 ) ) ;
#212 = ORIENTED_EDGE ( 'NONE', *, *, #66, .F. ) ;
#213 = CALENDAR_DATE ( 2023, 13, 2 ) ;
#214 = APPROVAL_STATUS ( 'not_yet_approved' ) ;
#215 = PRODUCT_DEFINITION ( 'NEZNÁMÝ', '', #158, #120 ) ;
#216 = CARTESIAN_POINT ( 'NONE',  ( 0.000000000000000000, 0.000000000000000000, 5.000000000000000000 ) ) ;
#217 = COORDINATED_UNIVERSAL_TIME_OFFSET ( 1, 0, .AHEAD. ) ;
#218 = DATE_AND_TIME ( #139, #59 ) ;
#219 = FACE_OUTER_BOUND ( 'NONE', #203, .T. ) ;
#220 = LINE ( 'NONE', #29, #17 ) ;
#221 = UNCERTAINTY_MEASURE_WITH_UNIT (LENGTH_MEASURE( 1.000000000000000082E-05 ), #223, 'distance_accuracy_value', 'NONE');
#222 = EDGE_CURVE ( 'NONE', #133, #160, #86, .T. ) ;
#223 =( LENGTH_UNIT ( ) NAMED_UNIT ( * ) SI_UNIT ( .MILLI., .METRE. ) );
#224 = ORIENTED_EDGE ( 'NONE', *, *, #37, .F. ) ;
#225 = APPLICATION_CONTEXT ( 'configuration controlled 3d designs of mechanical parts and assemblies' ) ;
#226 = VECTOR ( 'NONE', #45, 1000.000000000000000 ) ;
#227 = DATE_AND_TIME ( #46, #197 ) ;
#228 = LINE ( 'NONE', #118, #226 ) ;
#229 = APPLICATION_PROTOCOL_DEFINITION ( 'international standard', 'config_control_design', 1994, #186 ) ;
#230 = PERSON_AND_ORGANIZATION ( #129, #178 ) ;
#231 = CC_DESIGN_APPROVAL ( #44, ( #235 ) ) ;
#232 = CC_DESIGN_PERSON_AND_ORGANIZATION_ASSIGNMENT ( #7, #184, ( #235 ) ) ;
#233 = AXIS2_PLACEMENT_3D ( 'NONE', #3, #77, #241 ) ;
#234 = DIRECTION ( 'NONE',  ( 1.000000000000000000, 0.000000000000000000, 0.000000000000000000 ) ) ;
#235 = SECURITY_CLASSIFICATION ( '', '', #165 ) ;
#236 = ORIENTED_EDGE ( 'NONE', *, *, #136, .T. ) ;
#237 = PERSON_AND_ORGANIZATION_ROLE ( 'design_supplier' ) ;
#238 = CARTESIAN_POINT ( 'NONE',  ( 4.099999999999999645, 5.021051876504146399E-16, 400.0000000000000000 ) ) ;
#239 = DATE_AND_TIME ( #78, #9 ) ;
#240 = APPROVAL_PERSON_ORGANIZATION ( #116, #44, #91 ) ;
#241 = DIRECTION ( 'NONE',  ( 1.000000000000000000, 0.000000000000000000, -0.000000000000000000 ) ) ;
#242 = EDGE_CURVE ( 'NONE', #200, #41, #55, .T. ) ;
#243 = FACE_OUTER_BOUND ( 'NONE', #83, .T. ) ;
#244 = ORIENTED_EDGE ( 'NONE', *, *, #49, .F. ) ;
#245 = CLOSED_SHELL ( 'NONE', ( #125, #128, #176, #156, #206, #12, #170 ) ) ;
#246 = CARTESIAN_POINT ( 'NONE',  ( 0.000000000000000000, 0.000000000000000000, 5.000000000000000000 ) ) ;
#247 = DIRECTION ( 'NONE',  ( 1.000000000000000000, 0.000000000000000000, 0.000000000000000000 ) ) ;
#248 = DIRECTION ( 'NONE',  ( -0.000000000000000000, -0.000000000000000000, -1.000000000000000000 ) ) ;
#249 = PERSON_AND_ORGANIZATION_ROLE ( 'creator' ) ;
#250 = EDGE_CURVE ( 'NONE', #160, #133, #84, .T. ) ;
#251 = AXIS2_PLACEMENT_3D ( 'NONE', #216, #201, #234 ) ;
#252 = PERSON_AND_ORGANIZATION ( #129, #178 ) ;
#253 = CC_DESIGN_APPROVAL ( #2, ( #215 ) ) ;
#254 = CARTESIAN_POINT ( 'NONE',  ( 0.000000000000000000, 0.000000000000000000, 400.0000000000000000 ) ) ;
#255 = DATE_TIME_ROLE ( 'creation_date' ) ;
ENDSEC;
END-ISO-10303-21;
