ISO-10303-21;
HEADER;
FILE_DESCRIPTION (( 'STEP AP203' ),
    '1' );
FILE_NAME ('8428.STEP',
    '2023-01-31T14:47:24',
    ( '' ),
    ( '' ),
    'SwSTEP 2.0',
    'SolidWorks 2019',
    '' );
FILE_SCHEMA (( 'CONFIG_CONTROL_DESIGN' ));
ENDSEC;

DATA;
#1 = AXIS2_PLACEMENT_3D ( 'NONE', #10, #150, #194 ) ;
#2 = VERTEX_POINT ( 'NONE', #145 ) ;
#3 = CARTESIAN_POINT ( 'NONE',  ( 0.000000000000000000, 0.000000000000000000, 1.199999999999999956 ) ) ;
#4 = PERSON_AND_ORGANIZATION ( #45, #170 ) ;
#5 = CC_DESIGN_PERSON_AND_ORGANIZATION_ASSIGNMENT ( #4, #242, ( #43 ) ) ;
#6 = DATE_TIME_ROLE ( 'classification_date' ) ;
#7 = APPROVAL_STATUS ( 'not_yet_approved' ) ;
#8 = PRODUCT_DEFINITION_SHAPE ( 'NONE', 'NONE',  #226 ) ;
#9 = CARTESIAN_POINT ( 'NONE',  ( -0.5000000000000000000, 0.000000000000000000, 100.0000000000000000 ) ) ;
#10 = CARTESIAN_POINT ( 'NONE',  ( 0.000000000000000000, 0.000000000000000000, 1.199999999999999956 ) ) ;
#11 = DIRECTION ( 'NONE',  ( 0.000000000000000000, 0.000000000000000000, 1.000000000000000000 ) ) ;
#12 = DIRECTION ( 'NONE',  ( -0.000000000000000000, -0.000000000000000000, -1.000000000000000000 ) ) ;
#13 = AXIS2_PLACEMENT_3D ( 'NONE', #138, #11, #153 ) ;
#14 = PLANE ( 'NONE',  #69 ) ;
#15 = CC_DESIGN_APPROVAL ( #67, ( #43 ) ) ;
#16 = DIRECTION ( 'NONE',  ( 0.000000000000000000, 0.000000000000000000, 1.000000000000000000 ) ) ;
#17 = PRODUCT_RELATED_PRODUCT_CATEGORY ( 'detail', '', ( #129 ) ) ;
#18 = APPROVAL ( #225, 'NEURÈENÝ' ) ;
#19 = ORIENTED_EDGE ( 'NONE', *, *, #38, .F. ) ;
#20 =( NAMED_UNIT ( * ) SI_UNIT ( $, .STERADIAN. ) SOLID_ANGLE_UNIT ( ) );
#21 = CIRCLE ( 'NONE', #140, 1.250000000000000000 ) ;
#22 = ORIENTED_EDGE ( 'NONE', *, *, #157, .F. ) ;
#23 = AXIS2_PLACEMENT_3D ( 'NONE', #71, #137, #32 ) ;
#24 = ORIENTED_EDGE ( 'NONE', *, *, #210, .F. ) ;
#25 = PERSON_AND_ORGANIZATION ( #45, #170 ) ;
#26 = CALENDAR_DATE ( 2023, 31, 1 ) ;
#27 = ORIENTED_EDGE ( 'NONE', *, *, #238, .F. ) ;
#28 = PERSON_AND_ORGANIZATION ( #45, #170 ) ;
#29 = CIRCLE ( 'NONE', #64, 0.5000000000000000000 ) ;
#30 = DIRECTION ( 'NONE',  ( 0.000000000000000000, 0.000000000000000000, 1.000000000000000000 ) ) ;
#31 = CARTESIAN_POINT ( 'NONE',  ( 0.000000000000000000, 0.000000000000000000, 0.000000000000000000 ) ) ;
#32 = DIRECTION ( 'NONE',  ( -1.000000000000000000, 0.000000000000000000, 0.000000000000000000 ) ) ;
#33 = AXIS2_PLACEMENT_3D ( 'NONE', #35, #199, #96 ) ;
#34 = DIRECTION ( 'NONE',  ( 1.000000000000000000, 0.000000000000000000, -0.000000000000000000 ) ) ;
#35 = CARTESIAN_POINT ( 'NONE',  ( 0.000000000000000000, 0.000000000000000000, 0.000000000000000000 ) ) ;
#36 = DIRECTION ( 'NONE',  ( -0.000000000000000000, -0.000000000000000000, -1.000000000000000000 ) ) ;
#37 = VERTEX_POINT ( 'NONE', #88 ) ;
#38 = EDGE_CURVE ( 'NONE', #2, #186, #228, .T. ) ;
#39 = CIRCLE ( 'NONE', #134, 1.250000000000000000 ) ;
#40 = PERSON_AND_ORGANIZATION_ROLE ( 'design_owner' ) ;
#41 = AXIS2_PLACEMENT_3D ( 'NONE', #247, #56, #196 ) ;
#42 = VERTEX_POINT ( 'NONE', #9 ) ;
#43 = PRODUCT_DEFINITION_FORMATION_WITH_SPECIFIED_SOURCE ( 'LIBOVOLNÝ', '', #129, .NOT_KNOWN. ) ;
#44 = APPROVAL_ROLE ( '' ) ;
#45 = PERSON ( 'NEURÈENÝ', 'NEURÈENÝ', 'NEURÈENÝ', ('NEURÈENÝ'), ('NEURÈENÝ'), ('NEURÈENÝ') ) ;
#46 = APPLICATION_PROTOCOL_DEFINITION ( 'international standard', 'config_control_design', 1994, #135 ) ;
#47 = ADVANCED_FACE ( 'NONE', ( #66 ), #89, .T. ) ;
#48 = APPROVAL_STATUS ( 'not_yet_approved' ) ;
#49 = CARTESIAN_POINT ( 'NONE',  ( 0.000000000000000000, 0.000000000000000000, 1.199999999999999956 ) ) ;
#50 = SECURITY_CLASSIFICATION ( '', '', #92 ) ;
#51 = EDGE_CURVE ( 'NONE', #186, #60, #93, .T. ) ;
#52 = CARTESIAN_POINT ( 'NONE',  ( -1.250000000000000000, 0.000000000000000000, 1.199999999999999956 ) ) ;
#53 = CARTESIAN_POINT ( 'NONE',  ( 0.5000000000000000000, 6.123233995736766036E-17, 1.199999999999999956 ) ) ;
#54 = LINE ( 'NONE', #215, #192 ) ;
#55 = CYLINDRICAL_SURFACE ( 'NONE', #130, 0.5000000000000000000 ) ;
#56 = DIRECTION ( 'NONE',  ( 0.000000000000000000, 0.000000000000000000, 1.000000000000000000 ) ) ;
#57 = DIRECTION ( 'NONE',  ( 0.000000000000000000, 0.000000000000000000, 1.000000000000000000 ) ) ;
#58 = CC_DESIGN_PERSON_AND_ORGANIZATION_ASSIGNMENT ( #28, #174, ( #43 ) ) ;
#59 = APPROVAL_DATE_TIME ( #90, #67 ) ;
#60 = VERTEX_POINT ( 'NONE', #211 ) ;
#61 = PERSON_AND_ORGANIZATION_ROLE ( 'classification_officer' ) ;
#62 = ADVANCED_FACE ( 'NONE', ( #97 ), #250, .F. ) ;
#63 = DATE_AND_TIME ( #144, #197 ) ;
#64 = AXIS2_PLACEMENT_3D ( 'NONE', #176, #30, #68 ) ;
#65 = AXIS2_PLACEMENT_3D ( 'NONE', #3, #36, #163 ) ;
#66 = FACE_OUTER_BOUND ( 'NONE', #100, .T. ) ;
#67 = APPROVAL ( #7, 'NEURÈENÝ' ) ;
#68 = DIRECTION ( 'NONE',  ( 1.000000000000000000, 0.000000000000000000, 0.000000000000000000 ) ) ;
#69 = AXIS2_PLACEMENT_3D ( 'NONE', #70, #95, #213 ) ;
#70 = CARTESIAN_POINT ( 'NONE',  ( 0.000000000000000000, 0.000000000000000000, 100.0000000000000000 ) ) ;
#71 = CARTESIAN_POINT ( 'NONE',  ( 0.000000000000000000, 0.000000000000000000, 100.0000000000000000 ) ) ;
#72 = FACE_OUTER_BOUND ( 'NONE', #82, .T. ) ;
#73 = CARTESIAN_POINT ( 'NONE',  ( 0.000000000000000000, 0.000000000000000000, 100.0000000000000000 ) ) ;
#74 = APPROVAL_PERSON_ORGANIZATION ( #25, #67, #110 ) ;
#75 = UNCERTAINTY_MEASURE_WITH_UNIT (LENGTH_MEASURE( 1.000000000000000082E-05 ), #166, 'distance_accuracy_value', 'NONE');
#76 = DIRECTION ( 'NONE',  ( 1.000000000000000000, 0.000000000000000000, 0.000000000000000000 ) ) ;
#77 = APPLICATION_CONTEXT ( 'configuration controlled 3d designs of mechanical parts and assemblies' ) ;
#78 = EDGE_LOOP ( 'NONE', ( #151, #182 ) ) ;
#79 = ORIENTED_EDGE ( 'NONE', *, *, #210, .T. ) ;
#80 = ORIENTED_EDGE ( 'NONE', *, *, #87, .T. ) ;
#81 = LOCAL_TIME ( 15, 47, 24.00000000000000000, #229 ) ;
#82 = EDGE_LOOP ( 'NONE', ( #27, #103, #85, #122 ) ) ;
#83 = CC_DESIGN_DATE_AND_TIME_ASSIGNMENT ( #171, #193, ( #226 ) ) ;
#84 = COORDINATED_UNIVERSAL_TIME_OFFSET ( 1, 0, .AHEAD. ) ;
#85 = ORIENTED_EDGE ( 'NONE', *, *, #99, .T. ) ;
#86 = CC_DESIGN_SECURITY_CLASSIFICATION ( #50, ( #43 ) ) ;
#87 = EDGE_CURVE ( 'NONE', #42, #235, #188, .T. ) ;
#88 = CARTESIAN_POINT ( 'NONE',  ( -0.5000000000000000000, 0.000000000000000000, 1.199999999999999956 ) ) ;
#89 = CYLINDRICAL_SURFACE ( 'NONE', #1, 1.250000000000000000 ) ;
#90 = DATE_AND_TIME ( #26, #209 ) ;
#91 = APPROVAL_PERSON_ORGANIZATION ( #146, #18, #108 ) ;
#92 = SECURITY_CLASSIFICATION_LEVEL ( 'unclassified' ) ;
#93 = LINE ( 'NONE', #175, #128 ) ;
#94 = PLANE ( 'NONE',  #133 ) ;
#95 = DIRECTION ( 'NONE',  ( 0.000000000000000000, 0.000000000000000000, 1.000000000000000000 ) ) ;
#96 = DIRECTION ( 'NONE',  ( 1.000000000000000000, 0.000000000000000000, -0.000000000000000000 ) ) ;
#97 = FACE_OUTER_BOUND ( 'NONE', #98, .T. ) ;
#98 = EDGE_LOOP ( 'NONE', ( #22, #24 ) ) ;
#99 = EDGE_CURVE ( 'NONE', #218, #37, #156, .T. ) ;
#100 = EDGE_LOOP ( 'NONE', ( #204, #19, #125, #111 ) ) ;
#101 = VECTOR ( 'NONE', #136, 1000.000000000000000 ) ;
#102 = EDGE_LOOP ( 'NONE', ( #202, #190 ) ) ;
#103 = ORIENTED_EDGE ( 'NONE', *, *, #127, .T. ) ;
#104 = APPROVAL_DATE_TIME ( #243, #207 ) ;
#105 = EDGE_LOOP ( 'NONE', ( #80, #164 ) ) ;
#106 = ADVANCED_BREP_SHAPE_REPRESENTATION ( '8428', ( #254, #236 ), #149 ) ;
#107 = CC_DESIGN_PERSON_AND_ORGANIZATION_ASSIGNMENT ( #220, #40, ( #129 ) ) ;
#108 = APPROVAL_ROLE ( '' ) ;
#109 = ORIENTED_EDGE ( 'NONE', *, *, #127, .F. ) ;
#110 = APPROVAL_ROLE ( '' ) ;
#111 = ORIENTED_EDGE ( 'NONE', *, *, #157, .T. ) ;
#112 = AXIS2_PLACEMENT_3D ( 'NONE', #49, #173, #244 ) ;
#113 = FACE_OUTER_BOUND ( 'NONE', #102, .T. ) ;
#114 = LINE ( 'NONE', #177, #200 ) ;
#115 = CARTESIAN_POINT ( 'NONE',  ( 0.000000000000000000, 0.000000000000000000, 1.199999999999999956 ) ) ;
#116 = CARTESIAN_POINT ( 'NONE',  ( 0.5000000000000000000, 6.123233995736766036E-17, 100.0000000000000000 ) ) ;
#117 = CARTESIAN_POINT ( 'NONE',  ( 0.000000000000000000, 0.000000000000000000, 100.0000000000000000 ) ) ;
#118 = CC_DESIGN_PERSON_AND_ORGANIZATION_ASSIGNMENT ( #240, #189, ( #226 ) ) ;
#119 =( NAMED_UNIT ( * ) PLANE_ANGLE_UNIT ( ) SI_UNIT ( $, .RADIAN. ) );
#120 = LOCAL_TIME ( 15, 47, 24.00000000000000000, #230 ) ;
#121 = CARTESIAN_POINT ( 'NONE',  ( 0.000000000000000000, 0.000000000000000000, 0.000000000000000000 ) ) ;
#122 = ORIENTED_EDGE ( 'NONE', *, *, #216, .F. ) ;
#123 = AXIS2_PLACEMENT_3D ( 'NONE', #198, #16, #249 ) ;
#124 = COORDINATED_UNIVERSAL_TIME_OFFSET ( 1, 0, .AHEAD. ) ;
#125 = ORIENTED_EDGE ( 'NONE', *, *, #181, .T. ) ;
#126 = COORDINATED_UNIVERSAL_TIME_OFFSET ( 1, 0, .AHEAD. ) ;
#127 = EDGE_CURVE ( 'NONE', #235, #218, #54, .T. ) ;
#128 = VECTOR ( 'NONE', #246, 1000.000000000000000 ) ;
#129 = PRODUCT ( '8428', '8428', '', ( #184 ) ) ;
#130 = AXIS2_PLACEMENT_3D ( 'NONE', #117, #201, #187 ) ;
#131 = EDGE_CURVE ( 'NONE', #37, #218, #29, .T. ) ;
#132 = APPROVAL_DATE_TIME ( #227, #18 ) ;
#133 = AXIS2_PLACEMENT_3D ( 'NONE', #115, #195, #34 ) ;
#134 = AXIS2_PLACEMENT_3D ( 'NONE', #160, #185, #141 ) ;
#135 = APPLICATION_CONTEXT ( 'configuration controlled 3d designs of mechanical parts and assemblies' ) ;
#136 = DIRECTION ( 'NONE',  ( -0.000000000000000000, -0.000000000000000000, -1.000000000000000000 ) ) ;
#137 = DIRECTION ( 'NONE',  ( -0.000000000000000000, -0.000000000000000000, -1.000000000000000000 ) ) ;
#138 = CARTESIAN_POINT ( 'NONE',  ( 0.000000000000000000, 0.000000000000000000, 0.000000000000000000 ) ) ;
#139 = CARTESIAN_POINT ( 'NONE',  ( -1.250000000000000000, 0.000000000000000000, 0.000000000000000000 ) ) ;
#140 = AXIS2_PLACEMENT_3D ( 'NONE', #31, #179, #248 ) ;
#141 = DIRECTION ( 'NONE',  ( 1.000000000000000000, 0.000000000000000000, 0.000000000000000000 ) ) ;
#142 = ORIENTED_EDGE ( 'NONE', *, *, #181, .F. ) ;
#143 = CC_DESIGN_DATE_AND_TIME_ASSIGNMENT ( #63, #6, ( #50 ) ) ;
#144 = CALENDAR_DATE ( 2023, 31, 1 ) ;
#145 = CARTESIAN_POINT ( 'NONE',  ( -1.250000000000000000, 0.000000000000000000, 1.199999999999999956 ) ) ;
#146 = PERSON_AND_ORGANIZATION ( #45, #170 ) ;
#147 = AXIS2_PLACEMENT_3D ( 'NONE', #73, #159, #234 ) ;
#148 = SHAPE_DEFINITION_REPRESENTATION ( #8, #106 ) ;
#149 =( GEOMETRIC_REPRESENTATION_CONTEXT ( 3 ) GLOBAL_UNCERTAINTY_ASSIGNED_CONTEXT ( ( #75 ) ) GLOBAL_UNIT_ASSIGNED_CONTEXT ( ( #166, #119, #20 ) ) REPRESENTATION_CONTEXT ( 'NONE', 'WORKASPACE' ) );
#150 = DIRECTION ( 'NONE',  ( -0.000000000000000000, -0.000000000000000000, -1.000000000000000000 ) ) ;
#151 = ORIENTED_EDGE ( 'NONE', *, *, #131, .F. ) ;
#152 = ADVANCED_FACE ( 'NONE', ( #180, #113 ), #94, .T. ) ;
#153 = DIRECTION ( 'NONE',  ( 1.000000000000000000, 0.000000000000000000, 0.000000000000000000 ) ) ;
#154 = DIRECTION ( 'NONE',  ( -0.000000000000000000, -0.000000000000000000, -1.000000000000000000 ) ) ;
#155 = FACE_OUTER_BOUND ( 'NONE', #239, .T. ) ;
#156 = CIRCLE ( 'NONE', #41, 0.5000000000000000000 ) ;
#157 = EDGE_CURVE ( 'NONE', #237, #60, #165, .T. ) ;
#158 = CC_DESIGN_APPROVAL ( #207, ( #226 ) ) ;
#159 = DIRECTION ( 'NONE',  ( 0.000000000000000000, 0.000000000000000000, 1.000000000000000000 ) ) ;
#160 = CARTESIAN_POINT ( 'NONE',  ( 0.000000000000000000, 0.000000000000000000, 1.199999999999999956 ) ) ;
#161 = ORIENTED_EDGE ( 'NONE', *, *, #251, .F. ) ;
#162 = CC_DESIGN_PERSON_AND_ORGANIZATION_ASSIGNMENT ( #172, #61, ( #50 ) ) ;
#163 = DIRECTION ( 'NONE',  ( -1.000000000000000000, 0.000000000000000000, 0.000000000000000000 ) ) ;
#164 = ORIENTED_EDGE ( 'NONE', *, *, #238, .T. ) ;
#165 = CIRCLE ( 'NONE', #13, 1.250000000000000000 ) ;
#166 =( LENGTH_UNIT ( ) NAMED_UNIT ( * ) SI_UNIT ( .MILLI., .METRE. ) );
#167 = ORIENTED_EDGE ( 'NONE', *, *, #131, .T. ) ;
#168 = ADVANCED_FACE ( 'NONE', ( #233 ), #14, .T. ) ;
#169 = PERSON_AND_ORGANIZATION ( #45, #170 ) ;
#170 = ORGANIZATION ( 'NEURÈENÝ', 'NEURÈENÝ', '' ) ;
#171 = DATE_AND_TIME ( #205, #120 ) ;
#172 = PERSON_AND_ORGANIZATION ( #45, #170 ) ;
#173 = DIRECTION ( 'NONE',  ( 0.000000000000000000, 0.000000000000000000, 1.000000000000000000 ) ) ;
#174 = PERSON_AND_ORGANIZATION_ROLE ( 'creator' ) ;
#175 = CARTESIAN_POINT ( 'NONE',  ( 1.250000000000000000, 1.530808498934191571E-16, 1.199999999999999956 ) ) ;
#176 = CARTESIAN_POINT ( 'NONE',  ( 0.000000000000000000, 0.000000000000000000, 1.199999999999999956 ) ) ;
#177 = CARTESIAN_POINT ( 'NONE',  ( -0.5000000000000000000, 0.000000000000000000, 100.0000000000000000 ) ) ;
#178 = APPROVAL_PERSON_ORGANIZATION ( #169, #207, #44 ) ;
#179 = DIRECTION ( 'NONE',  ( 0.000000000000000000, 0.000000000000000000, 1.000000000000000000 ) ) ;
#180 = FACE_BOUND ( 'NONE', #78, .T. ) ;
#181 = EDGE_CURVE ( 'NONE', #2, #237, #231, .T. ) ;
#182 = ORIENTED_EDGE ( 'NONE', *, *, #99, .F. ) ;
#183 = CYLINDRICAL_SURFACE ( 'NONE', #65, 1.250000000000000000 ) ;
#184 = MECHANICAL_CONTEXT ( 'NONE', #77, 'mechanical' ) ;
#185 = DIRECTION ( 'NONE',  ( 0.000000000000000000, 0.000000000000000000, 1.000000000000000000 ) ) ;
#186 = VERTEX_POINT ( 'NONE', #212 ) ;
#187 = DIRECTION ( 'NONE',  ( -1.000000000000000000, 0.000000000000000000, 0.000000000000000000 ) ) ;
#188 = CIRCLE ( 'NONE', #147, 0.5000000000000000000 ) ;
#189 = PERSON_AND_ORGANIZATION_ROLE ( 'creator' ) ;
#190 = ORIENTED_EDGE ( 'NONE', *, *, #251, .T. ) ;
#191 = DESIGN_CONTEXT ( 'detailed design', #135, 'design' ) ;
#192 = VECTOR ( 'NONE', #12, 1000.000000000000000 ) ;
#193 = DATE_TIME_ROLE ( 'creation_date' ) ;
#194 = DIRECTION ( 'NONE',  ( -1.000000000000000000, 0.000000000000000000, 0.000000000000000000 ) ) ;
#195 = DIRECTION ( 'NONE',  ( 0.000000000000000000, 0.000000000000000000, 1.000000000000000000 ) ) ;
#196 = DIRECTION ( 'NONE',  ( 1.000000000000000000, 0.000000000000000000, 0.000000000000000000 ) ) ;
#197 = LOCAL_TIME ( 15, 47, 24.00000000000000000, #84 ) ;
#198 = CARTESIAN_POINT ( 'NONE',  ( 0.000000000000000000, 0.000000000000000000, 100.0000000000000000 ) ) ;
#199 = DIRECTION ( 'NONE',  ( 0.000000000000000000, 0.000000000000000000, 1.000000000000000000 ) ) ;
#200 = VECTOR ( 'NONE', #154, 1000.000000000000000 ) ;
#201 = DIRECTION ( 'NONE',  ( -0.000000000000000000, -0.000000000000000000, -1.000000000000000000 ) ) ;
#202 = ORIENTED_EDGE ( 'NONE', *, *, #38, .T. ) ;
#203 = ORIENTED_EDGE ( 'NONE', *, *, #87, .F. ) ;
#204 = ORIENTED_EDGE ( 'NONE', *, *, #51, .F. ) ;
#205 = CALENDAR_DATE ( 2023, 31, 1 ) ;
#206 = CALENDAR_DATE ( 2023, 31, 1 ) ;
#207 = APPROVAL ( #48, 'NEURÈENÝ' ) ;
#208 = CALENDAR_DATE ( 2023, 31, 1 ) ;
#209 = LOCAL_TIME ( 15, 47, 24.00000000000000000, #126 ) ;
#210 = EDGE_CURVE ( 'NONE', #60, #237, #21, .T. ) ;
#211 = CARTESIAN_POINT ( 'NONE',  ( 1.250000000000000000, 1.530808498934191571E-16, 0.000000000000000000 ) ) ;
#212 = CARTESIAN_POINT ( 'NONE',  ( 1.250000000000000000, 1.530808498934191571E-16, 1.199999999999999956 ) ) ;
#213 = DIRECTION ( 'NONE',  ( 1.000000000000000000, 0.000000000000000000, -0.000000000000000000 ) ) ;
#214 = CYLINDRICAL_SURFACE ( 'NONE', #23, 0.5000000000000000000 ) ;
#215 = CARTESIAN_POINT ( 'NONE',  ( 0.5000000000000000000, 6.123233995736766036E-17, 100.0000000000000000 ) ) ;
#216 = EDGE_CURVE ( 'NONE', #42, #37, #114, .T. ) ;
#217 = CLOSED_SHELL ( 'NONE', ( #245, #255, #47, #152, #62, #222, #168 ) ) ;
#218 = VERTEX_POINT ( 'NONE', #53 ) ;
#219 = FACE_OUTER_BOUND ( 'NONE', #252, .T. ) ;
#220 = PERSON_AND_ORGANIZATION ( #45, #170 ) ;
#221 = ORIENTED_EDGE ( 'NONE', *, *, #51, .T. ) ;
#222 = ADVANCED_FACE ( 'NONE', ( #155 ), #214, .T. ) ;
#223 = ORIENTED_EDGE ( 'NONE', *, *, #216, .T. ) ;
#224 = CC_DESIGN_APPROVAL ( #18, ( #50 ) ) ;
#225 = APPROVAL_STATUS ( 'not_yet_approved' ) ;
#226 = PRODUCT_DEFINITION ( 'NEZNÁMÝ', '', #43, #191 ) ;
#227 = DATE_AND_TIME ( #206, #81 ) ;
#228 = CIRCLE ( 'NONE', #112, 1.250000000000000000 ) ;
#229 = COORDINATED_UNIVERSAL_TIME_OFFSET ( 1, 0, .AHEAD. ) ;
#230 = COORDINATED_UNIVERSAL_TIME_OFFSET ( 1, 0, .AHEAD. ) ;
#231 = LINE ( 'NONE', #52, #101 ) ;
#232 = CIRCLE ( 'NONE', #123, 0.5000000000000000000 ) ;
#233 = FACE_OUTER_BOUND ( 'NONE', #105, .T. ) ;
#234 = DIRECTION ( 'NONE',  ( 1.000000000000000000, 0.000000000000000000, 0.000000000000000000 ) ) ;
#235 = VERTEX_POINT ( 'NONE', #116 ) ;
#236 = AXIS2_PLACEMENT_3D ( 'NONE', #121, #57, #76 ) ;
#237 = VERTEX_POINT ( 'NONE', #139 ) ;
#238 = EDGE_CURVE ( 'NONE', #235, #42, #232, .T. ) ;
#239 = EDGE_LOOP ( 'NONE', ( #109, #203, #223, #167 ) ) ;
#240 = PERSON_AND_ORGANIZATION ( #45, #170 ) ;
#241 = LOCAL_TIME ( 15, 47, 24.00000000000000000, #124 ) ;
#242 = PERSON_AND_ORGANIZATION_ROLE ( 'design_supplier' ) ;
#243 = DATE_AND_TIME ( #208, #241 ) ;
#244 = DIRECTION ( 'NONE',  ( 1.000000000000000000, 0.000000000000000000, 0.000000000000000000 ) ) ;
#245 = ADVANCED_FACE ( 'NONE', ( #72 ), #55, .T. ) ;
#246 = DIRECTION ( 'NONE',  ( -0.000000000000000000, -0.000000000000000000, -1.000000000000000000 ) ) ;
#247 = CARTESIAN_POINT ( 'NONE',  ( 0.000000000000000000, 0.000000000000000000, 1.199999999999999956 ) ) ;
#248 = DIRECTION ( 'NONE',  ( 1.000000000000000000, 0.000000000000000000, 0.000000000000000000 ) ) ;
#249 = DIRECTION ( 'NONE',  ( 1.000000000000000000, 0.000000000000000000, 0.000000000000000000 ) ) ;
#250 = PLANE ( 'NONE',  #33 ) ;
#251 = EDGE_CURVE ( 'NONE', #186, #2, #39, .T. ) ;
#252 = EDGE_LOOP ( 'NONE', ( #161, #221, #79, #142 ) ) ;
#253 = APPLICATION_PROTOCOL_DEFINITION ( 'international standard', 'config_control_design', 1994, #77 ) ;
#254 = MANIFOLD_SOLID_BREP ( 'Pøidat vysunutím3', #217 ) ;
#255 = ADVANCED_FACE ( 'NONE', ( #219 ), #183, .T. ) ;
ENDSEC;
END-ISO-10303-21;
