ISO-10303-21;
HEADER;
FILE_DESCRIPTION (( 'STEP AP203' ),
    '1' );
FILE_NAME ('9041.STEP',
    '2023-02-13T10:17:35',
    ( '' ),
    ( '' ),
    'SwSTEP 2.0',
    'SolidWorks 2019',
    '' );
FILE_SCHEMA (( 'CONFIG_CONTROL_DESIGN' ));
ENDSEC;

DATA;
#1 = EDGE_CURVE ( 'NONE', #8, #244, #108, .T. ) ;
#2 = DIRECTION ( 'NONE',  ( 1.000000000000000000, 0.000000000000000000, 0.000000000000000000 ) ) ;
#3 =( LENGTH_UNIT ( ) NAMED_UNIT ( * ) SI_UNIT ( .MILLI., .METRE. ) );
#4 = DIRECTION ( 'NONE',  ( -0.000000000000000000, -0.000000000000000000, -1.000000000000000000 ) ) ;
#5 = EDGE_CURVE ( 'NONE', #7, #103, #86, .T. ) ;
#6 = DATE_AND_TIME ( #163, #95 ) ;
#7 = VERTEX_POINT ( 'NONE', #248 ) ;
#8 = VERTEX_POINT ( 'NONE', #88 ) ;
#9 = MANIFOLD_SOLID_BREP ( 'Pøidat vysunutím3', #158 ) ;
#10 = SHAPE_DEFINITION_REPRESENTATION ( #20, #21 ) ;
#11 = VERTEX_POINT ( 'NONE', #51 ) ;
#12 = ORIENTED_EDGE ( 'NONE', *, *, #102, .F. ) ;
#13 = ADVANCED_FACE ( 'NONE', ( #63, #150 ), #65, .T. ) ;
#14 = CARTESIAN_POINT ( 'NONE',  ( 0.000000000000000000, 0.000000000000000000, 500.0000000000000000 ) ) ;
#15 = DIRECTION ( 'NONE',  ( -0.000000000000000000, -0.000000000000000000, -1.000000000000000000 ) ) ;
#16 = DIRECTION ( 'NONE',  ( 1.000000000000000000, 0.000000000000000000, -0.000000000000000000 ) ) ;
#17 = CYLINDRICAL_SURFACE ( 'NONE', #194, 9.000000000000000000 ) ;
#18 = CARTESIAN_POINT ( 'NONE',  ( 6.250000000000000000, 7.654042494670957606E-16, 7.000000000000000000 ) ) ;
#19 = CC_DESIGN_PERSON_AND_ORGANIZATION_ASSIGNMENT ( #144, #101, ( #215 ) ) ;
#20 = PRODUCT_DEFINITION_SHAPE ( 'NONE', 'NONE',  #123 ) ;
#21 = ADVANCED_BREP_SHAPE_REPRESENTATION ( '9041', ( #9, #253 ), #196 ) ;
#22 = COORDINATED_UNIVERSAL_TIME_OFFSET ( 1, 0, .AHEAD. ) ;
#23 = APPROVAL_DATE_TIME ( #182, #43 ) ;
#24 = AXIS2_PLACEMENT_3D ( 'NONE', #134, #92, #2 ) ;
#25 = PERSON_AND_ORGANIZATION ( #127, #77 ) ;
#26 = APPROVAL ( #249, 'NEURÈENÝ' ) ;
#27 = ORIENTED_EDGE ( 'NONE', *, *, #102, .T. ) ;
#28 = ORIENTED_EDGE ( 'NONE', *, *, #172, .F. ) ;
#29 = PERSON_AND_ORGANIZATION_ROLE ( 'classification_officer' ) ;
#30 = VERTEX_POINT ( 'NONE', #175 ) ;
#31 = ORIENTED_EDGE ( 'NONE', *, *, #1, .T. ) ;
#32 = VECTOR ( 'NONE', #73, 1000.000000000000000 ) ;
#33 = FACE_OUTER_BOUND ( 'NONE', #245, .T. ) ;
#34 = CARTESIAN_POINT ( 'NONE',  ( 0.000000000000000000, 0.000000000000000000, 500.0000000000000000 ) ) ;
#35 = CARTESIAN_POINT ( 'NONE',  ( -9.000000000000000000, 0.000000000000000000, 7.000000000000000000 ) ) ;
#36 = UNCERTAINTY_MEASURE_WITH_UNIT (LENGTH_MEASURE( 1.000000000000000082E-05 ), #3, 'distance_accuracy_value', 'NONE');
#37 = CC_DESIGN_APPROVAL ( #93, ( #133 ) ) ;
#38 = FACE_OUTER_BOUND ( 'NONE', #83, .T. ) ;
#39 =( NAMED_UNIT ( * ) PLANE_ANGLE_UNIT ( ) SI_UNIT ( $, .RADIAN. ) );
#40 =( NAMED_UNIT ( * ) SI_UNIT ( $, .STERADIAN. ) SOLID_ANGLE_UNIT ( ) );
#41 = APPROVAL_DATE_TIME ( #219, #93 ) ;
#42 = APPLICATION_PROTOCOL_DEFINITION ( 'international standard', 'config_control_design', 1994, #223 ) ;
#43 = APPROVAL ( #238, 'NEURÈENÝ' ) ;
#44 = CIRCLE ( 'NONE', #221, 9.000000000000000000 ) ;
#45 = COORDINATED_UNIVERSAL_TIME_OFFSET ( 1, 0, .AHEAD. ) ;
#46 = ORIENTED_EDGE ( 'NONE', *, *, #110, .F. ) ;
#47 = ORIENTED_EDGE ( 'NONE', *, *, #104, .T. ) ;
#48 = EDGE_LOOP ( 'NONE', ( #12, #224, #61, #204 ) ) ;
#49 = EDGE_CURVE ( 'NONE', #8, #171, #225, .T. ) ;
#50 = ORIENTED_EDGE ( 'NONE', *, *, #110, .T. ) ;
#51 = CARTESIAN_POINT ( 'NONE',  ( -6.250000000000000000, 0.000000000000000000, 7.000000000000000000 ) ) ;
#52 = CARTESIAN_POINT ( 'NONE',  ( 0.000000000000000000, 0.000000000000000000, 7.000000000000000000 ) ) ;
#53 = DIRECTION ( 'NONE',  ( 1.000000000000000000, 0.000000000000000000, 0.000000000000000000 ) ) ;
#54 = ADVANCED_FACE ( 'NONE', ( #38 ), #17, .T. ) ;
#55 = CARTESIAN_POINT ( 'NONE',  ( 0.000000000000000000, 0.000000000000000000, 7.000000000000000000 ) ) ;
#56 = PERSON_AND_ORGANIZATION_ROLE ( 'creator' ) ;
#57 = APPLICATION_CONTEXT ( 'configuration controlled 3d designs of mechanical parts and assemblies' ) ;
#58 = LINE ( 'NONE', #124, #183 ) ;
#59 = EDGE_LOOP ( 'NONE', ( #50, #169 ) ) ;
#60 = DATE_AND_TIME ( #128, #236 ) ;
#61 = ORIENTED_EDGE ( 'NONE', *, *, #167, .T. ) ;
#62 = APPROVAL_DATE_TIME ( #60, #26 ) ;
#63 = FACE_BOUND ( 'NONE', #247, .T. ) ;
#64 = CC_DESIGN_PERSON_AND_ORGANIZATION_ASSIGNMENT ( #87, #29, ( #173 ) ) ;
#65 = PLANE ( 'NONE',  #184 ) ;
#66 = CARTESIAN_POINT ( 'NONE',  ( -9.000000000000000000, 0.000000000000000000, 0.000000000000000000 ) ) ;
#67 = AXIS2_PLACEMENT_3D ( 'NONE', #233, #72, #207 ) ;
#68 = DIRECTION ( 'NONE',  ( 0.000000000000000000, 0.000000000000000000, 1.000000000000000000 ) ) ;
#69 = AXIS2_PLACEMENT_3D ( 'NONE', #34, #112, #188 ) ;
#70 = CC_DESIGN_DATE_AND_TIME_ASSIGNMENT ( #6, #214, ( #123 ) ) ;
#71 = CARTESIAN_POINT ( 'NONE',  ( 0.000000000000000000, 0.000000000000000000, 7.000000000000000000 ) ) ;
#72 = DIRECTION ( 'NONE',  ( 0.000000000000000000, 0.000000000000000000, 1.000000000000000000 ) ) ;
#73 = DIRECTION ( 'NONE',  ( -0.000000000000000000, -0.000000000000000000, -1.000000000000000000 ) ) ;
#74 = PERSON_AND_ORGANIZATION_ROLE ( 'creator' ) ;
#75 = DIRECTION ( 'NONE',  ( 1.000000000000000000, 0.000000000000000000, 0.000000000000000000 ) ) ;
#76 = PRODUCT_RELATED_PRODUCT_CATEGORY ( 'detail', '', ( #215 ) ) ;
#77 = ORGANIZATION ( 'NEURÈENÝ', 'NEURÈENÝ', '' ) ;
#78 = MECHANICAL_CONTEXT ( 'NONE', #223, 'mechanical' ) ;
#79 = COORDINATED_UNIVERSAL_TIME_OFFSET ( 1, 0, .AHEAD. ) ;
#80 = APPROVAL_ROLE ( '' ) ;
#81 = ORIENTED_EDGE ( 'NONE', *, *, #49, .F. ) ;
#82 = ORIENTED_EDGE ( 'NONE', *, *, #104, .F. ) ;
#83 = EDGE_LOOP ( 'NONE', ( #28, #27, #222, #147 ) ) ;
#84 = COORDINATED_UNIVERSAL_TIME_OFFSET ( 1, 0, .AHEAD. ) ;
#85 = DIRECTION ( 'NONE',  ( 1.000000000000000000, 0.000000000000000000, 0.000000000000000000 ) ) ;
#86 = CIRCLE ( 'NONE', #199, 9.000000000000000000 ) ;
#87 = PERSON_AND_ORGANIZATION ( #127, #77 ) ;
#88 = CARTESIAN_POINT ( 'NONE',  ( 6.250000000000000000, 7.654042494670957606E-16, 500.0000000000000000 ) ) ;
#89 = DIRECTION ( 'NONE',  ( 1.000000000000000000, 0.000000000000000000, 0.000000000000000000 ) ) ;
#90 = AXIS2_PLACEMENT_3D ( 'NONE', #52, #178, #114 ) ;
#91 = PLANE ( 'NONE',  #67 ) ;
#92 = DIRECTION ( 'NONE',  ( 0.000000000000000000, 0.000000000000000000, 1.000000000000000000 ) ) ;
#93 = APPROVAL ( #241, 'NEURÈENÝ' ) ;
#94 = DIRECTION ( 'NONE',  ( -1.000000000000000000, 0.000000000000000000, 0.000000000000000000 ) ) ;
#95 = LOCAL_TIME ( 11, 17, 35.00000000000000000, #22 ) ;
#96 = DIRECTION ( 'NONE',  ( -0.000000000000000000, -0.000000000000000000, -1.000000000000000000 ) ) ;
#97 = CARTESIAN_POINT ( 'NONE',  ( 0.000000000000000000, 0.000000000000000000, 0.000000000000000000 ) ) ;
#98 = CARTESIAN_POINT ( 'NONE',  ( 0.000000000000000000, 0.000000000000000000, 7.000000000000000000 ) ) ;
#99 = ADVANCED_FACE ( 'NONE', ( #33 ), #91, .F. ) ;
#100 = CC_DESIGN_SECURITY_CLASSIFICATION ( #173, ( #133 ) ) ;
#101 = PERSON_AND_ORGANIZATION_ROLE ( 'design_owner' ) ;
#102 = EDGE_CURVE ( 'NONE', #30, #7, #117, .T. ) ;
#103 = VERTEX_POINT ( 'NONE', #66 ) ;
#104 = EDGE_CURVE ( 'NONE', #11, #244, #216, .T. ) ;
#105 = ORIENTED_EDGE ( 'NONE', *, *, #5, .F. ) ;
#106 = AXIS2_PLACEMENT_3D ( 'NONE', #14, #139, #206 ) ;
#107 = AXIS2_PLACEMENT_3D ( 'NONE', #97, #141, #217 ) ;
#108 = LINE ( 'NONE', #149, #146 ) ;
#109 = DIRECTION ( 'NONE',  ( 0.000000000000000000, 0.000000000000000000, 1.000000000000000000 ) ) ;
#110 = EDGE_CURVE ( 'NONE', #171, #8, #231, .T. ) ;
#111 = CYLINDRICAL_SURFACE ( 'NONE', #69, 6.250000000000000000 ) ;
#112 = DIRECTION ( 'NONE',  ( -0.000000000000000000, -0.000000000000000000, -1.000000000000000000 ) ) ;
#113 = ADVANCED_FACE ( 'NONE', ( #190 ), #237, .T. ) ;
#114 = DIRECTION ( 'NONE',  ( 1.000000000000000000, 0.000000000000000000, 0.000000000000000000 ) ) ;
#115 = CIRCLE ( 'NONE', #107, 9.000000000000000000 ) ;
#116 = APPROVAL_PERSON_ORGANIZATION ( #180, #93, #143 ) ;
#117 = LINE ( 'NONE', #157, #32 ) ;
#118 = CC_DESIGN_PERSON_AND_ORGANIZATION_ASSIGNMENT ( #25, #56, ( #123 ) ) ;
#119 = ADVANCED_FACE ( 'NONE', ( #137 ), #179, .T. ) ;
#120 = PERSON_AND_ORGANIZATION ( #127, #77 ) ;
#121 = CARTESIAN_POINT ( 'NONE',  ( 0.000000000000000000, 0.000000000000000000, 0.000000000000000000 ) ) ;
#122 = LOCAL_TIME ( 11, 17, 35.00000000000000000, #84 ) ;
#123 = PRODUCT_DEFINITION ( 'NEZNÁMÝ', '', #133, #209 ) ;
#124 = CARTESIAN_POINT ( 'NONE',  ( -6.250000000000000000, 0.000000000000000000, 500.0000000000000000 ) ) ;
#125 = APPROVAL_ROLE ( '' ) ;
#126 = EDGE_LOOP ( 'NONE', ( #81, #31, #200, #205 ) ) ;
#127 = PERSON ( 'NEURÈENÝ', 'NEURÈENÝ', 'NEURÈENÝ', ('NEURÈENÝ'), ('NEURÈENÝ'), ('NEURÈENÝ') ) ;
#128 = CALENDAR_DATE ( 2023, 13, 2 ) ;
#129 = EDGE_LOOP ( 'NONE', ( #250, #226 ) ) ;
#130 = LOCAL_TIME ( 11, 17, 35.00000000000000000, #211 ) ;
#131 = CARTESIAN_POINT ( 'NONE',  ( 0.000000000000000000, 0.000000000000000000, 0.000000000000000000 ) ) ;
#132 = EDGE_LOOP ( 'NONE', ( #151, #46, #203, #47 ) ) ;
#133 = PRODUCT_DEFINITION_FORMATION_WITH_SPECIFIED_SOURCE ( 'LIBOVOLNÝ', '', #215, .NOT_KNOWN. ) ;
#134 = CARTESIAN_POINT ( 'NONE',  ( 0.000000000000000000, 0.000000000000000000, 500.0000000000000000 ) ) ;
#135 = EDGE_CURVE ( 'NONE', #185, #30, #44, .T. ) ;
#136 = FACE_OUTER_BOUND ( 'NONE', #132, .T. ) ;
#137 = FACE_OUTER_BOUND ( 'NONE', #126, .T. ) ;
#138 = CC_DESIGN_APPROVAL ( #26, ( #173 ) ) ;
#139 = DIRECTION ( 'NONE',  ( 0.000000000000000000, 0.000000000000000000, 1.000000000000000000 ) ) ;
#140 = APPLICATION_PROTOCOL_DEFINITION ( 'international standard', 'config_control_design', 1994, #57 ) ;
#141 = DIRECTION ( 'NONE',  ( 0.000000000000000000, 0.000000000000000000, 1.000000000000000000 ) ) ;
#142 = AXIS2_PLACEMENT_3D ( 'NONE', #98, #4, #94 ) ;
#143 = APPROVAL_ROLE ( '' ) ;
#144 = PERSON_AND_ORGANIZATION ( #127, #77 ) ;
#145 = DATE_TIME_ROLE ( 'classification_date' ) ;
#146 = VECTOR ( 'NONE', #174, 1000.000000000000000 ) ;
#147 = ORIENTED_EDGE ( 'NONE', *, *, #167, .F. ) ;
#148 = CC_DESIGN_PERSON_AND_ORGANIZATION_ASSIGNMENT ( #160, #202, ( #133 ) ) ;
#149 = CARTESIAN_POINT ( 'NONE',  ( 6.250000000000000000, 7.654042494670957606E-16, 500.0000000000000000 ) ) ;
#150 = FACE_OUTER_BOUND ( 'NONE', #129, .T. ) ;
#151 = ORIENTED_EDGE ( 'NONE', *, *, #1, .F. ) ;
#152 = DIRECTION ( 'NONE',  ( 1.000000000000000000, 0.000000000000000000, -0.000000000000000000 ) ) ;
#153 = CIRCLE ( 'NONE', #218, 9.000000000000000000 ) ;
#154 = CARTESIAN_POINT ( 'NONE',  ( 0.000000000000000000, 0.000000000000000000, 7.000000000000000000 ) ) ;
#155 = DIRECTION ( 'NONE',  ( -1.000000000000000000, 0.000000000000000000, 0.000000000000000000 ) ) ;
#156 = EDGE_CURVE ( 'NONE', #244, #11, #227, .T. ) ;
#157 = CARTESIAN_POINT ( 'NONE',  ( 9.000000000000000000, 1.102182119232617714E-15, 7.000000000000000000 ) ) ;
#158 = CLOSED_SHELL ( 'NONE', ( #119, #54, #243, #13, #99, #161, #113 ) ) ;
#159 = CARTESIAN_POINT ( 'NONE',  ( 0.000000000000000000, 0.000000000000000000, 500.0000000000000000 ) ) ;
#160 = PERSON_AND_ORGANIZATION ( #127, #77 ) ;
#161 = ADVANCED_FACE ( 'NONE', ( #136 ), #111, .T. ) ;
#162 = PERSON_AND_ORGANIZATION ( #127, #77 ) ;
#163 = CALENDAR_DATE ( 2023, 13, 2 ) ;
#164 = VECTOR ( 'NONE', #15, 1000.000000000000000 ) ;
#165 = CYLINDRICAL_SURFACE ( 'NONE', #142, 9.000000000000000000 ) ;
#166 = CALENDAR_DATE ( 2023, 13, 2 ) ;
#167 = EDGE_CURVE ( 'NONE', #185, #103, #189, .T. ) ;
#168 = SECURITY_CLASSIFICATION_LEVEL ( 'unclassified' ) ;
#169 = ORIENTED_EDGE ( 'NONE', *, *, #49, .T. ) ;
#170 = ORIENTED_EDGE ( 'NONE', *, *, #156, .F. ) ;
#171 = VERTEX_POINT ( 'NONE', #254 ) ;
#172 = EDGE_CURVE ( 'NONE', #30, #185, #153, .T. ) ;
#173 = SECURITY_CLASSIFICATION ( '', '', #168 ) ;
#174 = DIRECTION ( 'NONE',  ( -0.000000000000000000, -0.000000000000000000, -1.000000000000000000 ) ) ;
#175 = CARTESIAN_POINT ( 'NONE',  ( 9.000000000000000000, 1.102182119232617714E-15, 7.000000000000000000 ) ) ;
#176 = DIRECTION ( 'NONE',  ( -1.000000000000000000, 0.000000000000000000, 0.000000000000000000 ) ) ;
#177 = DIRECTION ( 'NONE',  ( -0.000000000000000000, -0.000000000000000000, -1.000000000000000000 ) ) ;
#178 = DIRECTION ( 'NONE',  ( 0.000000000000000000, 0.000000000000000000, 1.000000000000000000 ) ) ;
#179 = CYLINDRICAL_SURFACE ( 'NONE', #187, 6.250000000000000000 ) ;
#180 = PERSON_AND_ORGANIZATION ( #127, #77 ) ;
#181 = CARTESIAN_POINT ( 'NONE',  ( -9.000000000000000000, 0.000000000000000000, 7.000000000000000000 ) ) ;
#182 = DATE_AND_TIME ( #239, #130 ) ;
#183 = VECTOR ( 'NONE', #96, 1000.000000000000000 ) ;
#184 = AXIS2_PLACEMENT_3D ( 'NONE', #229, #68, #16 ) ;
#185 = VERTEX_POINT ( 'NONE', #181 ) ;
#186 = APPROVAL_PERSON_ORGANIZATION ( #162, #43, #125 ) ;
#187 = AXIS2_PLACEMENT_3D ( 'NONE', #159, #177, #155 ) ;
#188 = DIRECTION ( 'NONE',  ( -1.000000000000000000, 0.000000000000000000, 0.000000000000000000 ) ) ;
#189 = LINE ( 'NONE', #35, #164 ) ;
#190 = FACE_OUTER_BOUND ( 'NONE', #59, .T. ) ;
#191 = DIRECTION ( 'NONE',  ( 0.000000000000000000, 0.000000000000000000, 1.000000000000000000 ) ) ;
#192 = AXIS2_PLACEMENT_3D ( 'NONE', #154, #235, #89 ) ;
#193 = EDGE_CURVE ( 'NONE', #103, #7, #115, .T. ) ;
#194 = AXIS2_PLACEMENT_3D ( 'NONE', #55, #251, #176 ) ;
#195 = FACE_OUTER_BOUND ( 'NONE', #48, .T. ) ;
#196 =( GEOMETRIC_REPRESENTATION_CONTEXT ( 3 ) GLOBAL_UNCERTAINTY_ASSIGNED_CONTEXT ( ( #36 ) ) GLOBAL_UNIT_ASSIGNED_CONTEXT ( ( #3, #39, #40 ) ) REPRESENTATION_CONTEXT ( 'NONE', 'WORKASPACE' ) );
#197 = CALENDAR_DATE ( 2023, 13, 2 ) ;
#198 = ORIENTED_EDGE ( 'NONE', *, *, #193, .F. ) ;
#199 = AXIS2_PLACEMENT_3D ( 'NONE', #131, #109, #85 ) ;
#200 = ORIENTED_EDGE ( 'NONE', *, *, #156, .T. ) ;
#201 = APPROVAL_PERSON_ORGANIZATION ( #228, #26, #80 ) ;
#202 = PERSON_AND_ORGANIZATION_ROLE ( 'design_supplier' ) ;
#203 = ORIENTED_EDGE ( 'NONE', *, *, #220, .T. ) ;
#204 = ORIENTED_EDGE ( 'NONE', *, *, #193, .T. ) ;
#205 = ORIENTED_EDGE ( 'NONE', *, *, #220, .F. ) ;
#206 = DIRECTION ( 'NONE',  ( 1.000000000000000000, 0.000000000000000000, 0.000000000000000000 ) ) ;
#207 = DIRECTION ( 'NONE',  ( 1.000000000000000000, 0.000000000000000000, -0.000000000000000000 ) ) ;
#208 = CARTESIAN_POINT ( 'NONE',  ( 0.000000000000000000, 0.000000000000000000, 7.000000000000000000 ) ) ;
#209 = DESIGN_CONTEXT ( 'detailed design', #57, 'design' ) ;
#210 = DIRECTION ( 'NONE',  ( 0.000000000000000000, 0.000000000000000000, 1.000000000000000000 ) ) ;
#211 = COORDINATED_UNIVERSAL_TIME_OFFSET ( 1, 0, .AHEAD. ) ;
#212 = CC_DESIGN_DATE_AND_TIME_ASSIGNMENT ( #246, #145, ( #173 ) ) ;
#213 = CC_DESIGN_PERSON_AND_ORGANIZATION_ASSIGNMENT ( #120, #74, ( #133 ) ) ;
#214 = DATE_TIME_ROLE ( 'creation_date' ) ;
#215 = PRODUCT ( '9041', '9041', '', ( #78 ) ) ;
#216 = CIRCLE ( 'NONE', #90, 6.250000000000000000 ) ;
#217 = DIRECTION ( 'NONE',  ( 1.000000000000000000, 0.000000000000000000, 0.000000000000000000 ) ) ;
#218 = AXIS2_PLACEMENT_3D ( 'NONE', #71, #234, #53 ) ;
#219 = DATE_AND_TIME ( #166, #232 ) ;
#220 = EDGE_CURVE ( 'NONE', #171, #11, #58, .T. ) ;
#221 = AXIS2_PLACEMENT_3D ( 'NONE', #208, #230, #252 ) ;
#222 = ORIENTED_EDGE ( 'NONE', *, *, #5, .T. ) ;
#223 = APPLICATION_CONTEXT ( 'configuration controlled 3d designs of mechanical parts and assemblies' ) ;
#224 = ORIENTED_EDGE ( 'NONE', *, *, #135, .F. ) ;
#225 = CIRCLE ( 'NONE', #24, 6.250000000000000000 ) ;
#226 = ORIENTED_EDGE ( 'NONE', *, *, #172, .T. ) ;
#227 = CIRCLE ( 'NONE', #192, 6.250000000000000000 ) ;
#228 = PERSON_AND_ORGANIZATION ( #127, #77 ) ;
#229 = CARTESIAN_POINT ( 'NONE',  ( 0.000000000000000000, 0.000000000000000000, 7.000000000000000000 ) ) ;
#230 = DIRECTION ( 'NONE',  ( 0.000000000000000000, 0.000000000000000000, 1.000000000000000000 ) ) ;
#231 = CIRCLE ( 'NONE', #106, 6.250000000000000000 ) ;
#232 = LOCAL_TIME ( 11, 17, 35.00000000000000000, #79 ) ;
#233 = CARTESIAN_POINT ( 'NONE',  ( 0.000000000000000000, 0.000000000000000000, 0.000000000000000000 ) ) ;
#234 = DIRECTION ( 'NONE',  ( 0.000000000000000000, 0.000000000000000000, 1.000000000000000000 ) ) ;
#235 = DIRECTION ( 'NONE',  ( 0.000000000000000000, 0.000000000000000000, 1.000000000000000000 ) ) ;
#236 = LOCAL_TIME ( 11, 17, 35.00000000000000000, #45 ) ;
#237 = PLANE ( 'NONE',  #240 ) ;
#238 = APPROVAL_STATUS ( 'not_yet_approved' ) ;
#239 = CALENDAR_DATE ( 2023, 13, 2 ) ;
#240 = AXIS2_PLACEMENT_3D ( 'NONE', #255, #210, #152 ) ;
#241 = APPROVAL_STATUS ( 'not_yet_approved' ) ;
#242 = CC_DESIGN_APPROVAL ( #43, ( #123 ) ) ;
#243 = ADVANCED_FACE ( 'NONE', ( #195 ), #165, .T. ) ;
#244 = VERTEX_POINT ( 'NONE', #18 ) ;
#245 = EDGE_LOOP ( 'NONE', ( #198, #105 ) ) ;
#246 = DATE_AND_TIME ( #197, #122 ) ;
#247 = EDGE_LOOP ( 'NONE', ( #82, #170 ) ) ;
#248 = CARTESIAN_POINT ( 'NONE',  ( 9.000000000000000000, 1.102182119232617714E-15, 0.000000000000000000 ) ) ;
#249 = APPROVAL_STATUS ( 'not_yet_approved' ) ;
#250 = ORIENTED_EDGE ( 'NONE', *, *, #135, .T. ) ;
#251 = DIRECTION ( 'NONE',  ( -0.000000000000000000, -0.000000000000000000, -1.000000000000000000 ) ) ;
#252 = DIRECTION ( 'NONE',  ( 1.000000000000000000, 0.000000000000000000, 0.000000000000000000 ) ) ;
#253 = AXIS2_PLACEMENT_3D ( 'NONE', #121, #191, #75 ) ;
#254 = CARTESIAN_POINT ( 'NONE',  ( -6.250000000000000000, 0.000000000000000000, 500.0000000000000000 ) ) ;
#255 = CARTESIAN_POINT ( 'NONE',  ( 0.000000000000000000, 0.000000000000000000, 500.0000000000000000 ) ) ;
ENDSEC;
END-ISO-10303-21;
